ISO-10303-21;
HEADER;
FILE_DESCRIPTION(('FreeCAD Model'),'2;1');
FILE_NAME('Open CASCADE Shape Model','2024-10-25T14:41:23',(''),(''),
  'Open CASCADE STEP processor 7.7','FreeCAD','Unknown');
FILE_SCHEMA(('AUTOMOTIVE_DESIGN { 1 0 10303 214 1 1 1 1 }'));
ENDSEC;
DATA;
#1 = APPLICATION_PROTOCOL_DEFINITION('international standard',
  'automotive_design',2000,#2);
#2 = APPLICATION_CONTEXT(
  'core data for automotive mechanical design processes');
#3 = SHAPE_DEFINITION_REPRESENTATION(#4,#10);
#4 = PRODUCT_DEFINITION_SHAPE('','',#5);
#5 = PRODUCT_DEFINITION('design','',#6,#9);
#6 = PRODUCT_DEFINITION_FORMATION('','',#7);
#7 = PRODUCT(
'STEMFIE Construction Standard - Template - Block Unit BU01x01x01 - 
SCS-TPL-0001 (stemfie.org)',
'STEMFIE Construction Standard - Template - Block Unit BU01x01x01 - 
SCS-TPL-0001 (stemfie.org)','',(#8));
#8 = PRODUCT_CONTEXT('',#2,'mechanical');
#9 = PRODUCT_DEFINITION_CONTEXT('part definition',#2,'design');
#10 = ADVANCED_BREP_SHAPE_REPRESENTATION('',(#11,#15),#529);
#11 = AXIS2_PLACEMENT_3D('',#12,#13,#14);
#12 = CARTESIAN_POINT('',(0.,0.,0.));
#13 = DIRECTION('',(0.,0.,1.));
#14 = DIRECTION('',(1.,0.,-0.));
#15 = MANIFOLD_SOLID_BREP('',#16);
#16 = CLOSED_SHELL('',(#17,#68,#110,#145,#180,#208,#287,#310,#371,#425,
    #468,#506));
#17 = ADVANCED_FACE('',(#18,#52),#63,.T.);
#18 = FACE_BOUND('',#19,.T.);
#19 = EDGE_LOOP('',(#20,#30,#38,#46));
#20 = ORIENTED_EDGE('',*,*,#21,.T.);
#21 = EDGE_CURVE('',#22,#24,#26,.T.);
#22 = VERTEX_POINT('',#23);
#23 = CARTESIAN_POINT('',(-6.25,6.25,-6.25));
#24 = VERTEX_POINT('',#25);
#25 = CARTESIAN_POINT('',(-6.25,6.25,6.25));
#26 = LINE('',#27,#28);
#27 = CARTESIAN_POINT('',(-6.25,6.25,-6.25));
#28 = VECTOR('',#29,1.);
#29 = DIRECTION('',(0.,0.,1.));
#30 = ORIENTED_EDGE('',*,*,#31,.T.);
#31 = EDGE_CURVE('',#24,#32,#34,.T.);
#32 = VERTEX_POINT('',#33);
#33 = CARTESIAN_POINT('',(6.25,6.25,6.25));
#34 = LINE('',#35,#36);
#35 = CARTESIAN_POINT('',(-6.25,6.25,6.25));
#36 = VECTOR('',#37,1.);
#37 = DIRECTION('',(1.,0.,0.));
#38 = ORIENTED_EDGE('',*,*,#39,.F.);
#39 = EDGE_CURVE('',#40,#32,#42,.T.);
#40 = VERTEX_POINT('',#41);
#41 = CARTESIAN_POINT('',(6.25,6.25,-6.25));
#42 = LINE('',#43,#44);
#43 = CARTESIAN_POINT('',(6.25,6.25,-6.25));
#44 = VECTOR('',#45,1.);
#45 = DIRECTION('',(0.,0.,1.));
#46 = ORIENTED_EDGE('',*,*,#47,.F.);
#47 = EDGE_CURVE('',#22,#40,#48,.T.);
#48 = LINE('',#49,#50);
#49 = CARTESIAN_POINT('',(-6.25,6.25,-6.25));
#50 = VECTOR('',#51,1.);
#51 = DIRECTION('',(1.,0.,0.));
#52 = FACE_BOUND('',#53,.T.);
#53 = EDGE_LOOP('',(#54));
#54 = ORIENTED_EDGE('',*,*,#55,.T.);
#55 = EDGE_CURVE('',#56,#56,#58,.T.);
#56 = VERTEX_POINT('',#57);
#57 = CARTESIAN_POINT('',(3.5,6.25,-1.E-15));
#58 = CIRCLE('',#59,3.5);
#59 = AXIS2_PLACEMENT_3D('',#60,#61,#62);
#60 = CARTESIAN_POINT('',(0.,6.25,-1.39E-15));
#61 = DIRECTION('',(0.,-1.,2.2E-16));
#62 = DIRECTION('',(1.,0.,0.));
#63 = PLANE('',#64);
#64 = AXIS2_PLACEMENT_3D('',#65,#66,#67);
#65 = CARTESIAN_POINT('',(-6.25,6.25,-6.25));
#66 = DIRECTION('',(0.,1.,0.));
#67 = DIRECTION('',(1.,0.,0.));
#68 = ADVANCED_FACE('',(#69,#94),#105,.T.);
#69 = FACE_BOUND('',#70,.T.);
#70 = EDGE_LOOP('',(#71,#81,#87,#88));
#71 = ORIENTED_EDGE('',*,*,#72,.T.);
#72 = EDGE_CURVE('',#73,#75,#77,.T.);
#73 = VERTEX_POINT('',#74);
#74 = CARTESIAN_POINT('',(-6.25,-6.25,-6.25));
#75 = VERTEX_POINT('',#76);
#76 = CARTESIAN_POINT('',(-6.25,-6.25,6.25));
#77 = LINE('',#78,#79);
#78 = CARTESIAN_POINT('',(-6.25,-6.25,-6.25));
#79 = VECTOR('',#80,1.);
#80 = DIRECTION('',(0.,0.,1.));
#81 = ORIENTED_EDGE('',*,*,#82,.T.);
#82 = EDGE_CURVE('',#75,#24,#83,.T.);
#83 = LINE('',#84,#85);
#84 = CARTESIAN_POINT('',(-6.25,-6.25,6.25));
#85 = VECTOR('',#86,1.);
#86 = DIRECTION('',(0.,1.,0.));
#87 = ORIENTED_EDGE('',*,*,#21,.F.);
#88 = ORIENTED_EDGE('',*,*,#89,.F.);
#89 = EDGE_CURVE('',#73,#22,#90,.T.);
#90 = LINE('',#91,#92);
#91 = CARTESIAN_POINT('',(-6.25,-6.25,-6.25));
#92 = VECTOR('',#93,1.);
#93 = DIRECTION('',(0.,1.,0.));
#94 = FACE_BOUND('',#95,.T.);
#95 = EDGE_LOOP('',(#96));
#96 = ORIENTED_EDGE('',*,*,#97,.T.);
#97 = EDGE_CURVE('',#98,#98,#100,.T.);
#98 = VERTEX_POINT('',#99);
#99 = CARTESIAN_POINT('',(-6.25,3.5,-4.E-15));
#100 = CIRCLE('',#101,3.5);
#101 = AXIS2_PLACEMENT_3D('',#102,#103,#104);
#102 = CARTESIAN_POINT('',(-6.25,6.9E-16,-1.39E-15));
#103 = DIRECTION('',(1.,-1.1E-16,2.2E-16));
#104 = DIRECTION('',(1.1E-16,1.,-6.7E-16));
#105 = PLANE('',#106);
#106 = AXIS2_PLACEMENT_3D('',#107,#108,#109);
#107 = CARTESIAN_POINT('',(-6.25,-6.25,-6.25));
#108 = DIRECTION('',(-1.,0.,0.));
#109 = DIRECTION('',(0.,1.,0.));
#110 = ADVANCED_FACE('',(#111,#129),#140,.T.);
#111 = FACE_BOUND('',#112,.T.);
#112 = EDGE_LOOP('',(#113,#114,#122,#128));
#113 = ORIENTED_EDGE('',*,*,#47,.T.);
#114 = ORIENTED_EDGE('',*,*,#115,.T.);
#115 = EDGE_CURVE('',#40,#116,#118,.T.);
#116 = VERTEX_POINT('',#117);
#117 = CARTESIAN_POINT('',(6.25,-6.25,-6.25));
#118 = LINE('',#119,#120);
#119 = CARTESIAN_POINT('',(6.25,6.25,-6.25));
#120 = VECTOR('',#121,1.);
#121 = DIRECTION('',(0.,-1.,0.));
#122 = ORIENTED_EDGE('',*,*,#123,.T.);
#123 = EDGE_CURVE('',#116,#73,#124,.T.);
#124 = LINE('',#125,#126);
#125 = CARTESIAN_POINT('',(6.25,-6.25,-6.25));
#126 = VECTOR('',#127,1.);
#127 = DIRECTION('',(-1.,0.,0.));
#128 = ORIENTED_EDGE('',*,*,#89,.T.);
#129 = FACE_BOUND('',#130,.T.);
#130 = EDGE_LOOP('',(#131));
#131 = ORIENTED_EDGE('',*,*,#132,.T.);
#132 = EDGE_CURVE('',#133,#133,#135,.T.);
#133 = VERTEX_POINT('',#134);
#134 = CARTESIAN_POINT('',(3.5,0.,-6.25));
#135 = CIRCLE('',#136,3.5);
#136 = AXIS2_PLACEMENT_3D('',#137,#138,#139);
#137 = CARTESIAN_POINT('',(0.,0.,-6.25));
#138 = DIRECTION('',(0.,0.,1.));
#139 = DIRECTION('',(1.,0.,0.));
#140 = PLANE('',#141);
#141 = AXIS2_PLACEMENT_3D('',#142,#143,#144);
#142 = CARTESIAN_POINT('',(8.5E-16,1.14E-15,-6.25));
#143 = DIRECTION('',(-0.,-0.,-1.));
#144 = DIRECTION('',(-1.,0.,0.));
#145 = ADVANCED_FACE('',(#146,#164),#175,.F.);
#146 = FACE_BOUND('',#147,.F.);
#147 = EDGE_LOOP('',(#148,#149,#157,#163));
#148 = ORIENTED_EDGE('',*,*,#31,.T.);
#149 = ORIENTED_EDGE('',*,*,#150,.T.);
#150 = EDGE_CURVE('',#32,#151,#153,.T.);
#151 = VERTEX_POINT('',#152);
#152 = CARTESIAN_POINT('',(6.25,-6.25,6.25));
#153 = LINE('',#154,#155);
#154 = CARTESIAN_POINT('',(6.25,6.25,6.25));
#155 = VECTOR('',#156,1.);
#156 = DIRECTION('',(0.,-1.,0.));
#157 = ORIENTED_EDGE('',*,*,#158,.T.);
#158 = EDGE_CURVE('',#151,#75,#159,.T.);
#159 = LINE('',#160,#161);
#160 = CARTESIAN_POINT('',(6.25,-6.25,6.25));
#161 = VECTOR('',#162,1.);
#162 = DIRECTION('',(-1.,0.,0.));
#163 = ORIENTED_EDGE('',*,*,#82,.T.);
#164 = FACE_BOUND('',#165,.F.);
#165 = EDGE_LOOP('',(#166));
#166 = ORIENTED_EDGE('',*,*,#167,.T.);
#167 = EDGE_CURVE('',#168,#168,#170,.T.);
#168 = VERTEX_POINT('',#169);
#169 = CARTESIAN_POINT('',(3.5,0.,6.25));
#170 = CIRCLE('',#171,3.5);
#171 = AXIS2_PLACEMENT_3D('',#172,#173,#174);
#172 = CARTESIAN_POINT('',(0.,0.,6.25));
#173 = DIRECTION('',(0.,0.,1.));
#174 = DIRECTION('',(1.,0.,0.));
#175 = PLANE('',#176);
#176 = AXIS2_PLACEMENT_3D('',#177,#178,#179);
#177 = CARTESIAN_POINT('',(8.5E-16,1.14E-15,6.25));
#178 = DIRECTION('',(-0.,-0.,-1.));
#179 = DIRECTION('',(-1.,0.,0.));
#180 = ADVANCED_FACE('',(#181,#192),#203,.T.);
#181 = FACE_BOUND('',#182,.T.);
#182 = EDGE_LOOP('',(#183,#184,#185,#191));
#183 = ORIENTED_EDGE('',*,*,#39,.T.);
#184 = ORIENTED_EDGE('',*,*,#150,.T.);
#185 = ORIENTED_EDGE('',*,*,#186,.F.);
#186 = EDGE_CURVE('',#116,#151,#187,.T.);
#187 = LINE('',#188,#189);
#188 = CARTESIAN_POINT('',(6.25,-6.25,-6.25));
#189 = VECTOR('',#190,1.);
#190 = DIRECTION('',(0.,0.,1.));
#191 = ORIENTED_EDGE('',*,*,#115,.F.);
#192 = FACE_BOUND('',#193,.T.);
#193 = EDGE_LOOP('',(#194));
#194 = ORIENTED_EDGE('',*,*,#195,.F.);
#195 = EDGE_CURVE('',#196,#196,#198,.T.);
#196 = VERTEX_POINT('',#197);
#197 = CARTESIAN_POINT('',(6.25,3.5,-1.E-15));
#198 = CIRCLE('',#199,3.5);
#199 = AXIS2_PLACEMENT_3D('',#200,#201,#202);
#200 = CARTESIAN_POINT('',(6.25,-6.9E-16,1.39E-15));
#201 = DIRECTION('',(1.,-1.1E-16,2.2E-16));
#202 = DIRECTION('',(1.1E-16,1.,-6.7E-16));
#203 = PLANE('',#204);
#204 = AXIS2_PLACEMENT_3D('',#205,#206,#207);
#205 = CARTESIAN_POINT('',(6.25,6.25,-6.25));
#206 = DIRECTION('',(1.,0.,0.));
#207 = DIRECTION('',(0.,-1.,0.));
#208 = ADVANCED_FACE('',(#209),#282,.F.);
#209 = FACE_BOUND('',#210,.F.);
#210 = EDGE_LOOP('',(#211,#222,#231,#240,#246,#247,#248,#257,#266,#275)
  );
#211 = ORIENTED_EDGE('',*,*,#212,.F.);
#212 = EDGE_CURVE('',#213,#215,#217,.T.);
#213 = VERTEX_POINT('',#214);
#214 = CARTESIAN_POINT('',(-2.474873734153,2.474873734153,2.474873734153
    ));
#215 = VERTEX_POINT('',#216);
#216 = CARTESIAN_POINT('',(-3.5,3.5,-3.E-15));
#217 = ELLIPSE('',#218,4.949747468306,3.5);
#218 = AXIS2_PLACEMENT_3D('',#219,#220,#221);
#219 = CARTESIAN_POINT('',(0.,-3.55E-15,4.86E-15));
#220 = DIRECTION('',(-0.707106781187,-0.707106781187,-2.694641817891E-33
    ));
#221 = DIRECTION('',(0.707106781187,-0.707106781187,3.1E-16));
#222 = ORIENTED_EDGE('',*,*,#223,.T.);
#223 = EDGE_CURVE('',#213,#224,#226,.T.);
#224 = VERTEX_POINT('',#225);
#225 = CARTESIAN_POINT('',(2.474873734153,2.474873734153,2.474873734153)
  );
#226 = ELLIPSE('',#227,4.949747468306,3.5);
#227 = AXIS2_PLACEMENT_3D('',#228,#229,#230);
#228 = CARTESIAN_POINT('',(0.,0.,4.44E-15));
#229 = DIRECTION('',(0.,0.707106781187,-0.707106781187));
#230 = DIRECTION('',(0.,-0.707106781187,-0.707106781187));
#231 = ORIENTED_EDGE('',*,*,#232,.F.);
#232 = EDGE_CURVE('',#233,#224,#235,.T.);
#233 = VERTEX_POINT('',#234);
#234 = CARTESIAN_POINT('',(3.5,3.5,-1.E-15));
#235 = ELLIPSE('',#236,4.949747468306,3.5);
#236 = AXIS2_PLACEMENT_3D('',#237,#238,#239);
#237 = CARTESIAN_POINT('',(0.,-3.55E-15,4.86E-15));
#238 = DIRECTION('',(0.707106781187,-0.707106781187,3.1E-16));
#239 = DIRECTION('',(-0.707106781187,-0.707106781187,-3.010111996449E-33
    ));
#240 = ORIENTED_EDGE('',*,*,#241,.T.);
#241 = EDGE_CURVE('',#233,#56,#242,.T.);
#242 = LINE('',#243,#244);
#243 = CARTESIAN_POINT('',(3.5,-21.86714144555,4.86E-15));
#244 = VECTOR('',#245,1.);
#245 = DIRECTION('',(0.,1.,-2.2E-16));
#246 = ORIENTED_EDGE('',*,*,#55,.T.);
#247 = ORIENTED_EDGE('',*,*,#241,.F.);
#248 = ORIENTED_EDGE('',*,*,#249,.F.);
#249 = EDGE_CURVE('',#250,#233,#252,.T.);
#250 = VERTEX_POINT('',#251);
#251 = CARTESIAN_POINT('',(2.474873734153,2.474873734153,-2.474873734153
    ));
#252 = ELLIPSE('',#253,4.949747468306,3.5);
#253 = AXIS2_PLACEMENT_3D('',#254,#255,#256);
#254 = CARTESIAN_POINT('',(0.,-3.55E-15,4.86E-15));
#255 = DIRECTION('',(0.707106781187,-0.707106781187,3.1E-16));
#256 = DIRECTION('',(-0.707106781187,-0.707106781187,-3.010111996449E-33
    ));
#257 = ORIENTED_EDGE('',*,*,#258,.F.);
#258 = EDGE_CURVE('',#259,#250,#261,.T.);
#259 = VERTEX_POINT('',#260);
#260 = CARTESIAN_POINT('',(0.,3.5,-3.5));
#261 = ELLIPSE('',#262,4.949747468306,3.5);
#262 = AXIS2_PLACEMENT_3D('',#263,#264,#265);
#263 = CARTESIAN_POINT('',(0.,0.,4.44E-15));
#264 = DIRECTION('',(0.,-0.707106781187,-0.707106781187));
#265 = DIRECTION('',(0.,0.707106781187,-0.707106781187));
#266 = ORIENTED_EDGE('',*,*,#267,.F.);
#267 = EDGE_CURVE('',#268,#259,#270,.T.);
#268 = VERTEX_POINT('',#269);
#269 = CARTESIAN_POINT('',(-2.474873734153,2.474873734153,
    -2.474873734153));
#270 = ELLIPSE('',#271,4.949747468306,3.5);
#271 = AXIS2_PLACEMENT_3D('',#272,#273,#274);
#272 = CARTESIAN_POINT('',(0.,0.,4.44E-15));
#273 = DIRECTION('',(0.,-0.707106781187,-0.707106781187));
#274 = DIRECTION('',(0.,0.707106781187,-0.707106781187));
#275 = ORIENTED_EDGE('',*,*,#276,.F.);
#276 = EDGE_CURVE('',#215,#268,#277,.T.);
#277 = ELLIPSE('',#278,4.949747468306,3.5);
#278 = AXIS2_PLACEMENT_3D('',#279,#280,#281);
#279 = CARTESIAN_POINT('',(0.,-3.55E-15,4.86E-15));
#280 = DIRECTION('',(-0.707106781187,-0.707106781187,-2.694641817891E-33
    ));
#281 = DIRECTION('',(0.707106781187,-0.707106781187,3.1E-16));
#282 = CYLINDRICAL_SURFACE('',#283,3.5);
#283 = AXIS2_PLACEMENT_3D('',#284,#285,#286);
#284 = CARTESIAN_POINT('',(0.,-21.86714144555,4.86E-15));
#285 = DIRECTION('',(0.,-1.,2.2E-16));
#286 = DIRECTION('',(1.,0.,0.));
#287 = ADVANCED_FACE('',(#288,#294),#305,.T.);
#288 = FACE_BOUND('',#289,.T.);
#289 = EDGE_LOOP('',(#290,#291,#292,#293));
#290 = ORIENTED_EDGE('',*,*,#186,.T.);
#291 = ORIENTED_EDGE('',*,*,#158,.T.);
#292 = ORIENTED_EDGE('',*,*,#72,.F.);
#293 = ORIENTED_EDGE('',*,*,#123,.F.);
#294 = FACE_BOUND('',#295,.T.);
#295 = EDGE_LOOP('',(#296));
#296 = ORIENTED_EDGE('',*,*,#297,.F.);
#297 = EDGE_CURVE('',#298,#298,#300,.T.);
#298 = VERTEX_POINT('',#299);
#299 = CARTESIAN_POINT('',(3.5,-6.25,1.E-15));
#300 = CIRCLE('',#301,3.5);
#301 = AXIS2_PLACEMENT_3D('',#302,#303,#304);
#302 = CARTESIAN_POINT('',(0.,-6.25,1.39E-15));
#303 = DIRECTION('',(0.,-1.,2.2E-16));
#304 = DIRECTION('',(1.,0.,0.));
#305 = PLANE('',#306);
#306 = AXIS2_PLACEMENT_3D('',#307,#308,#309);
#307 = CARTESIAN_POINT('',(6.25,-6.25,-6.25));
#308 = DIRECTION('',(0.,-1.,0.));
#309 = DIRECTION('',(-1.,0.,0.));
#310 = ADVANCED_FACE('',(#311),#366,.F.);
#311 = FACE_BOUND('',#312,.F.);
#312 = EDGE_LOOP('',(#313,#314,#320,#321,#322,#323,#332,#341,#350,#359)
  );
#313 = ORIENTED_EDGE('',*,*,#212,.T.);
#314 = ORIENTED_EDGE('',*,*,#315,.T.);
#315 = EDGE_CURVE('',#215,#98,#316,.T.);
#316 = LINE('',#317,#318);
#317 = CARTESIAN_POINT('',(21.867141445557,3.5,1.36E-15));
#318 = VECTOR('',#319,1.);
#319 = DIRECTION('',(-1.,-2.2E-31,-2.2E-16));
#320 = ORIENTED_EDGE('',*,*,#97,.T.);
#321 = ORIENTED_EDGE('',*,*,#315,.F.);
#322 = ORIENTED_EDGE('',*,*,#276,.T.);
#323 = ORIENTED_EDGE('',*,*,#324,.F.);
#324 = EDGE_CURVE('',#325,#268,#327,.T.);
#325 = VERTEX_POINT('',#326);
#326 = CARTESIAN_POINT('',(-3.5,-0.,-3.5));
#327 = ELLIPSE('',#328,4.949747468306,3.5);
#328 = AXIS2_PLACEMENT_3D('',#329,#330,#331);
#329 = CARTESIAN_POINT('',(0.,0.,4.44E-15));
#330 = DIRECTION('',(0.707106781187,-8.E-17,-0.707106781187));
#331 = DIRECTION('',(-0.707106781187,8.E-17,-0.707106781187));
#332 = ORIENTED_EDGE('',*,*,#333,.F.);
#333 = EDGE_CURVE('',#334,#325,#336,.T.);
#334 = VERTEX_POINT('',#335);
#335 = CARTESIAN_POINT('',(-2.474873734153,-2.474873734153,
    -2.474873734153));
#336 = ELLIPSE('',#337,4.949747468306,3.5);
#337 = AXIS2_PLACEMENT_3D('',#338,#339,#340);
#338 = CARTESIAN_POINT('',(0.,0.,4.44E-15));
#339 = DIRECTION('',(0.707106781187,-8.E-17,-0.707106781187));
#340 = DIRECTION('',(-0.707106781187,8.E-17,-0.707106781187));
#341 = ORIENTED_EDGE('',*,*,#342,.F.);
#342 = EDGE_CURVE('',#343,#334,#345,.T.);
#343 = VERTEX_POINT('',#344);
#344 = CARTESIAN_POINT('',(-3.5,-3.5,5.E-15));
#345 = ELLIPSE('',#346,4.949747468306,3.5);
#346 = AXIS2_PLACEMENT_3D('',#347,#348,#349);
#347 = CARTESIAN_POINT('',(0.,-3.55E-15,4.86E-15));
#348 = DIRECTION('',(0.707106781187,-0.707106781187,3.1E-16));
#349 = DIRECTION('',(-0.707106781187,-0.707106781187,-3.010111996449E-33
    ));
#350 = ORIENTED_EDGE('',*,*,#351,.F.);
#351 = EDGE_CURVE('',#352,#343,#354,.T.);
#352 = VERTEX_POINT('',#353);
#353 = CARTESIAN_POINT('',(-2.474873734153,-2.474873734153,
    2.474873734153));
#354 = ELLIPSE('',#355,4.949747468306,3.5);
#355 = AXIS2_PLACEMENT_3D('',#356,#357,#358);
#356 = CARTESIAN_POINT('',(0.,-3.55E-15,4.86E-15));
#357 = DIRECTION('',(0.707106781187,-0.707106781187,3.1E-16));
#358 = DIRECTION('',(-0.707106781187,-0.707106781187,-3.010111996449E-33
    ));
#359 = ORIENTED_EDGE('',*,*,#360,.T.);
#360 = EDGE_CURVE('',#352,#213,#361,.T.);
#361 = ELLIPSE('',#362,4.949747468306,3.5);
#362 = AXIS2_PLACEMENT_3D('',#363,#364,#365);
#363 = CARTESIAN_POINT('',(0.,0.,4.44E-15));
#364 = DIRECTION('',(-0.707106781187,8.E-17,-0.707106781187));
#365 = DIRECTION('',(0.707106781187,-8.E-17,-0.707106781187));
#366 = CYLINDRICAL_SURFACE('',#367,3.5);
#367 = AXIS2_PLACEMENT_3D('',#368,#369,#370);
#368 = CARTESIAN_POINT('',(21.867141445557,4.86E-30,4.86E-15));
#369 = DIRECTION('',(1.,2.2E-31,2.2E-16));
#370 = DIRECTION('',(0.,1.,-1.E-15));
#371 = ADVANCED_FACE('',(#372),#420,.F.);
#372 = FACE_BOUND('',#373,.T.);
#373 = EDGE_LOOP('',(#374,#382,#383,#384,#391,#392,#393,#394,#395,#404,
    #413));
#374 = ORIENTED_EDGE('',*,*,#375,.F.);
#375 = EDGE_CURVE('',#133,#376,#378,.T.);
#376 = VERTEX_POINT('',#377);
#377 = CARTESIAN_POINT('',(3.5,0.,-3.5));
#378 = LINE('',#379,#380);
#379 = CARTESIAN_POINT('',(3.5,0.,-6.25));
#380 = VECTOR('',#381,1.);
#381 = DIRECTION('',(0.,0.,1.));
#382 = ORIENTED_EDGE('',*,*,#132,.F.);
#383 = ORIENTED_EDGE('',*,*,#375,.T.);
#384 = ORIENTED_EDGE('',*,*,#385,.F.);
#385 = EDGE_CURVE('',#250,#376,#386,.T.);
#386 = ELLIPSE('',#387,4.949747468306,3.5);
#387 = AXIS2_PLACEMENT_3D('',#388,#389,#390);
#388 = CARTESIAN_POINT('',(0.,0.,4.44E-15));
#389 = DIRECTION('',(-0.707106781187,8.E-17,-0.707106781187));
#390 = DIRECTION('',(0.707106781187,-8.E-17,-0.707106781187));
#391 = ORIENTED_EDGE('',*,*,#258,.F.);
#392 = ORIENTED_EDGE('',*,*,#267,.F.);
#393 = ORIENTED_EDGE('',*,*,#324,.F.);
#394 = ORIENTED_EDGE('',*,*,#333,.F.);
#395 = ORIENTED_EDGE('',*,*,#396,.F.);
#396 = EDGE_CURVE('',#397,#334,#399,.T.);
#397 = VERTEX_POINT('',#398);
#398 = CARTESIAN_POINT('',(0.,-3.5,-3.5));
#399 = ELLIPSE('',#400,4.949747468306,3.5);
#400 = AXIS2_PLACEMENT_3D('',#401,#402,#403);
#401 = CARTESIAN_POINT('',(0.,0.,4.44E-15));
#402 = DIRECTION('',(0.,0.707106781187,-0.707106781187));
#403 = DIRECTION('',(0.,-0.707106781187,-0.707106781187));
#404 = ORIENTED_EDGE('',*,*,#405,.F.);
#405 = EDGE_CURVE('',#406,#397,#408,.T.);
#406 = VERTEX_POINT('',#407);
#407 = CARTESIAN_POINT('',(2.474873734153,-2.474873734153,
    -2.474873734153));
#408 = ELLIPSE('',#409,4.949747468306,3.5);
#409 = AXIS2_PLACEMENT_3D('',#410,#411,#412);
#410 = CARTESIAN_POINT('',(0.,0.,4.44E-15));
#411 = DIRECTION('',(0.,0.707106781187,-0.707106781187));
#412 = DIRECTION('',(0.,-0.707106781187,-0.707106781187));
#413 = ORIENTED_EDGE('',*,*,#414,.F.);
#414 = EDGE_CURVE('',#376,#406,#415,.T.);
#415 = ELLIPSE('',#416,4.949747468306,3.5);
#416 = AXIS2_PLACEMENT_3D('',#417,#418,#419);
#417 = CARTESIAN_POINT('',(0.,0.,4.44E-15));
#418 = DIRECTION('',(-0.707106781187,8.E-17,-0.707106781187));
#419 = DIRECTION('',(0.707106781187,-8.E-17,-0.707106781187));
#420 = CYLINDRICAL_SURFACE('',#421,3.5);
#421 = AXIS2_PLACEMENT_3D('',#422,#423,#424);
#422 = CARTESIAN_POINT('',(0.,0.,-6.25));
#423 = DIRECTION('',(-0.,-0.,-1.));
#424 = DIRECTION('',(1.,0.,0.));
#425 = ADVANCED_FACE('',(#426),#463,.F.);
#426 = FACE_BOUND('',#427,.T.);
#427 = EDGE_LOOP('',(#428,#429,#430,#439,#445,#446,#447,#456));
#428 = ORIENTED_EDGE('',*,*,#360,.T.);
#429 = ORIENTED_EDGE('',*,*,#223,.T.);
#430 = ORIENTED_EDGE('',*,*,#431,.T.);
#431 = EDGE_CURVE('',#224,#432,#434,.T.);
#432 = VERTEX_POINT('',#433);
#433 = CARTESIAN_POINT('',(3.5,0.,3.5));
#434 = ELLIPSE('',#435,4.949747468306,3.5);
#435 = AXIS2_PLACEMENT_3D('',#436,#437,#438);
#436 = CARTESIAN_POINT('',(0.,0.,4.44E-15));
#437 = DIRECTION('',(0.707106781187,-8.E-17,-0.707106781187));
#438 = DIRECTION('',(-0.707106781187,8.E-17,-0.707106781187));
#439 = ORIENTED_EDGE('',*,*,#440,.T.);
#440 = EDGE_CURVE('',#432,#168,#441,.T.);
#441 = LINE('',#442,#443);
#442 = CARTESIAN_POINT('',(3.5,0.,-6.25));
#443 = VECTOR('',#444,1.);
#444 = DIRECTION('',(0.,0.,1.));
#445 = ORIENTED_EDGE('',*,*,#167,.T.);
#446 = ORIENTED_EDGE('',*,*,#440,.F.);
#447 = ORIENTED_EDGE('',*,*,#448,.T.);
#448 = EDGE_CURVE('',#432,#449,#451,.T.);
#449 = VERTEX_POINT('',#450);
#450 = CARTESIAN_POINT('',(2.474873734153,-2.474873734153,2.474873734153
    ));
#451 = ELLIPSE('',#452,4.949747468306,3.5);
#452 = AXIS2_PLACEMENT_3D('',#453,#454,#455);
#453 = CARTESIAN_POINT('',(0.,0.,4.44E-15));
#454 = DIRECTION('',(0.707106781187,-8.E-17,-0.707106781187));
#455 = DIRECTION('',(-0.707106781187,8.E-17,-0.707106781187));
#456 = ORIENTED_EDGE('',*,*,#457,.T.);
#457 = EDGE_CURVE('',#449,#352,#458,.T.);
#458 = ELLIPSE('',#459,4.949747468306,3.5);
#459 = AXIS2_PLACEMENT_3D('',#460,#461,#462);
#460 = CARTESIAN_POINT('',(0.,0.,4.44E-15));
#461 = DIRECTION('',(0.,-0.707106781187,-0.707106781187));
#462 = DIRECTION('',(0.,0.707106781187,-0.707106781187));
#463 = CYLINDRICAL_SURFACE('',#464,3.5);
#464 = AXIS2_PLACEMENT_3D('',#465,#466,#467);
#465 = CARTESIAN_POINT('',(0.,0.,-6.25));
#466 = DIRECTION('',(-0.,-0.,-1.));
#467 = DIRECTION('',(1.,0.,0.));
#468 = ADVANCED_FACE('',(#469),#501,.F.);
#469 = FACE_BOUND('',#470,.F.);
#470 = EDGE_LOOP('',(#471,#472,#478,#479,#480,#481,#490,#497,#498,#499,
    #500));
#471 = ORIENTED_EDGE('',*,*,#195,.F.);
#472 = ORIENTED_EDGE('',*,*,#473,.T.);
#473 = EDGE_CURVE('',#196,#233,#474,.T.);
#474 = LINE('',#475,#476);
#475 = CARTESIAN_POINT('',(21.867141445557,3.5,1.36E-15));
#476 = VECTOR('',#477,1.);
#477 = DIRECTION('',(-1.,-2.2E-31,-2.2E-16));
#478 = ORIENTED_EDGE('',*,*,#232,.T.);
#479 = ORIENTED_EDGE('',*,*,#431,.T.);
#480 = ORIENTED_EDGE('',*,*,#448,.T.);
#481 = ORIENTED_EDGE('',*,*,#482,.F.);
#482 = EDGE_CURVE('',#483,#449,#485,.T.);
#483 = VERTEX_POINT('',#484);
#484 = CARTESIAN_POINT('',(3.5,-3.5,1.E-15));
#485 = ELLIPSE('',#486,4.949747468306,3.5);
#486 = AXIS2_PLACEMENT_3D('',#487,#488,#489);
#487 = CARTESIAN_POINT('',(0.,-3.55E-15,4.86E-15));
#488 = DIRECTION('',(-0.707106781187,-0.707106781187,-2.694641817891E-33
    ));
#489 = DIRECTION('',(0.707106781187,-0.707106781187,3.1E-16));
#490 = ORIENTED_EDGE('',*,*,#491,.F.);
#491 = EDGE_CURVE('',#406,#483,#492,.T.);
#492 = ELLIPSE('',#493,4.949747468306,3.5);
#493 = AXIS2_PLACEMENT_3D('',#494,#495,#496);
#494 = CARTESIAN_POINT('',(0.,-3.55E-15,4.86E-15));
#495 = DIRECTION('',(-0.707106781187,-0.707106781187,-2.694641817891E-33
    ));
#496 = DIRECTION('',(0.707106781187,-0.707106781187,3.1E-16));
#497 = ORIENTED_EDGE('',*,*,#414,.F.);
#498 = ORIENTED_EDGE('',*,*,#385,.F.);
#499 = ORIENTED_EDGE('',*,*,#249,.T.);
#500 = ORIENTED_EDGE('',*,*,#473,.F.);
#501 = CYLINDRICAL_SURFACE('',#502,3.5);
#502 = AXIS2_PLACEMENT_3D('',#503,#504,#505);
#503 = CARTESIAN_POINT('',(21.867141445557,4.86E-30,4.86E-15));
#504 = DIRECTION('',(1.,2.2E-31,2.2E-16));
#505 = DIRECTION('',(0.,1.,-1.E-15));
#506 = ADVANCED_FACE('',(#507),#524,.F.);
#507 = FACE_BOUND('',#508,.F.);
#508 = EDGE_LOOP('',(#509,#515,#516,#517,#518,#519,#520,#521,#522,#523)
  );
#509 = ORIENTED_EDGE('',*,*,#510,.F.);
#510 = EDGE_CURVE('',#298,#483,#511,.T.);
#511 = LINE('',#512,#513);
#512 = CARTESIAN_POINT('',(3.5,-21.86714144555,4.86E-15));
#513 = VECTOR('',#514,1.);
#514 = DIRECTION('',(0.,1.,-2.2E-16));
#515 = ORIENTED_EDGE('',*,*,#297,.F.);
#516 = ORIENTED_EDGE('',*,*,#510,.T.);
#517 = ORIENTED_EDGE('',*,*,#482,.T.);
#518 = ORIENTED_EDGE('',*,*,#457,.T.);
#519 = ORIENTED_EDGE('',*,*,#351,.T.);
#520 = ORIENTED_EDGE('',*,*,#342,.T.);
#521 = ORIENTED_EDGE('',*,*,#396,.F.);
#522 = ORIENTED_EDGE('',*,*,#405,.F.);
#523 = ORIENTED_EDGE('',*,*,#491,.T.);
#524 = CYLINDRICAL_SURFACE('',#525,3.5);
#525 = AXIS2_PLACEMENT_3D('',#526,#527,#528);
#526 = CARTESIAN_POINT('',(0.,-21.86714144555,4.86E-15));
#527 = DIRECTION('',(0.,-1.,2.2E-16));
#528 = DIRECTION('',(1.,0.,0.));
#529 = ( GEOMETRIC_REPRESENTATION_CONTEXT(3) 
GLOBAL_UNCERTAINTY_ASSIGNED_CONTEXT((#533)) GLOBAL_UNIT_ASSIGNED_CONTEXT
((#530,#531,#532)) REPRESENTATION_CONTEXT('Context #1',
  '3D Context with UNIT and UNCERTAINTY') );
#530 = ( LENGTH_UNIT() NAMED_UNIT(*) SI_UNIT(.MILLI.,.METRE.) );
#531 = ( NAMED_UNIT(*) PLANE_ANGLE_UNIT() SI_UNIT($,.RADIAN.) );
#532 = ( NAMED_UNIT(*) SI_UNIT($,.STERADIAN.) SOLID_ANGLE_UNIT() );
#533 = UNCERTAINTY_MEASURE_WITH_UNIT(LENGTH_MEASURE(1.E-07),#530,
  'distance_accuracy_value','confusion accuracy');
#534 = PRODUCT_RELATED_PRODUCT_CATEGORY('part',$,(#7));
#535 = MECHANICAL_DESIGN_GEOMETRIC_PRESENTATION_REPRESENTATION('',(#536)
  ,#529);
#536 = STYLED_ITEM('color',(#537),#15);
#537 = PRESENTATION_STYLE_ASSIGNMENT((#538,#544));
#538 = SURFACE_STYLE_USAGE(.BOTH.,#539);
#539 = SURFACE_SIDE_STYLE('',(#540));
#540 = SURFACE_STYLE_FILL_AREA(#541);
#541 = FILL_AREA_STYLE('',(#542));
#542 = FILL_AREA_STYLE_COLOUR('',#543);
#543 = COLOUR_RGB('',0.800000010877,0.800000010877,0.800000010877);
#544 = CURVE_STYLE('',#545,POSITIVE_LENGTH_MEASURE(0.1),#546);
#545 = DRAUGHTING_PRE_DEFINED_CURVE_FONT('continuous');
#546 = COLOUR_RGB('',9.803921802644E-02,9.803921802644E-02,
  9.803921802644E-02);
ENDSEC;
END-ISO-10303-21;
