ISO-10303-21;
HEADER;
FILE_DESCRIPTION(('FreeCAD Model'),'2;1');
FILE_NAME('Open CASCADE Shape Model','2024-10-25T21:52:37',(''),(''),
  'Open CASCADE STEP processor 7.7','FreeCAD','Unknown');
FILE_SCHEMA(('AUTOMOTIVE_DESIGN { 1 0 10303 214 1 1 1 1 }'));
ENDSEC;
DATA;
#1 = APPLICATION_PROTOCOL_DEFINITION('international standard',
  'automotive_design',2000,#2);
#2 = APPLICATION_CONTEXT(
  'core data for automotive mechanical design processes');
#3 = SHAPE_DEFINITION_REPRESENTATION(#4,#10);
#4 = PRODUCT_DEFINITION_SHAPE('','',#5);
#5 = PRODUCT_DEFINITION('design','',#6,#9);
#6 = PRODUCT_DEFINITION_FORMATION('','',#7);
#7 = PRODUCT(
'STEMFIE Construction Standard - Template - Block Unit Hole 2D 
BU01x01x7mm - SCS-TPL-0005 (stemfie.org)',
'STEMFIE Construction Standard - Template - Block Unit Hole 2D 
BU01x01x7mm - SCS-TPL-0005 (stemfie.org)','',(#8));
#8 = PRODUCT_CONTEXT('',#2,'mechanical');
#9 = PRODUCT_DEFINITION_CONTEXT('part definition',#2,'design');
#10 = ADVANCED_BREP_SHAPE_REPRESENTATION('',(#11,#15),#215);
#11 = AXIS2_PLACEMENT_3D('',#12,#13,#14);
#12 = CARTESIAN_POINT('',(0.,0.,0.));
#13 = DIRECTION('',(0.,0.,1.));
#14 = DIRECTION('',(1.,0.,-0.));
#15 = MANIFOLD_SOLID_BREP('',#16);
#16 = CLOSED_SHELL('',(#17,#77,#86,#128,#161,#188,#197,#206));
#17 = ADVANCED_FACE('',(#18),#72,.T.);
#18 = FACE_BOUND('',#19,.F.);
#19 = EDGE_LOOP('',(#20,#29,#37,#46,#55,#64,#71));
#20 = ORIENTED_EDGE('',*,*,#21,.F.);
#21 = EDGE_CURVE('',#22,#22,#24,.T.);
#22 = VERTEX_POINT('',#23);
#23 = CARTESIAN_POINT('',(3.5,0.,-6.25));
#24 = CIRCLE('',#25,3.5);
#25 = AXIS2_PLACEMENT_3D('',#26,#27,#28);
#26 = CARTESIAN_POINT('',(0.,0.,-6.25));
#27 = DIRECTION('',(0.,0.,1.));
#28 = DIRECTION('',(1.,0.,0.));
#29 = ORIENTED_EDGE('',*,*,#30,.T.);
#30 = EDGE_CURVE('',#22,#31,#33,.T.);
#31 = VERTEX_POINT('',#32);
#32 = CARTESIAN_POINT('',(3.5,0.,-3.5));
#33 = LINE('',#34,#35);
#34 = CARTESIAN_POINT('',(3.5,0.,-6.25));
#35 = VECTOR('',#36,1.);
#36 = DIRECTION('',(0.,0.,1.));
#37 = ORIENTED_EDGE('',*,*,#38,.F.);
#38 = EDGE_CURVE('',#39,#31,#41,.T.);
#39 = VERTEX_POINT('',#40);
#40 = CARTESIAN_POINT('',(0.,3.5,-1.E-15));
#41 = ELLIPSE('',#42,4.949747468306,3.5);
#42 = AXIS2_PLACEMENT_3D('',#43,#44,#45);
#43 = CARTESIAN_POINT('',(0.,0.,-8.9E-16));
#44 = DIRECTION('',(-0.707106781187,1.6E-16,-0.707106781187));
#45 = DIRECTION('',(0.707106781187,-1.6E-16,-0.707106781187));
#46 = ORIENTED_EDGE('',*,*,#47,.F.);
#47 = EDGE_CURVE('',#48,#39,#50,.T.);
#48 = VERTEX_POINT('',#49);
#49 = CARTESIAN_POINT('',(-3.5,1.E-15,-3.5));
#50 = ELLIPSE('',#51,4.949747468306,3.5);
#51 = AXIS2_PLACEMENT_3D('',#52,#53,#54);
#52 = CARTESIAN_POINT('',(0.,0.,-8.9E-16));
#53 = DIRECTION('',(0.707106781187,-1.6E-16,-0.707106781187));
#54 = DIRECTION('',(-0.707106781187,1.6E-16,-0.707106781187));
#55 = ORIENTED_EDGE('',*,*,#56,.F.);
#56 = EDGE_CURVE('',#57,#48,#59,.T.);
#57 = VERTEX_POINT('',#58);
#58 = CARTESIAN_POINT('',(-0.,-3.5,-1.E-15));
#59 = ELLIPSE('',#60,4.949747468306,3.5);
#60 = AXIS2_PLACEMENT_3D('',#61,#62,#63);
#61 = CARTESIAN_POINT('',(0.,0.,-8.9E-16));
#62 = DIRECTION('',(0.707106781187,-1.6E-16,-0.707106781187));
#63 = DIRECTION('',(-0.707106781187,1.6E-16,-0.707106781187));
#64 = ORIENTED_EDGE('',*,*,#65,.F.);
#65 = EDGE_CURVE('',#31,#57,#66,.T.);
#66 = ELLIPSE('',#67,4.949747468306,3.5);
#67 = AXIS2_PLACEMENT_3D('',#68,#69,#70);
#68 = CARTESIAN_POINT('',(0.,0.,-8.9E-16));
#69 = DIRECTION('',(-0.707106781187,1.6E-16,-0.707106781187));
#70 = DIRECTION('',(0.707106781187,-1.6E-16,-0.707106781187));
#71 = ORIENTED_EDGE('',*,*,#30,.F.);
#72 = CYLINDRICAL_SURFACE('',#73,3.5);
#73 = AXIS2_PLACEMENT_3D('',#74,#75,#76);
#74 = CARTESIAN_POINT('',(0.,0.,-6.25));
#75 = DIRECTION('',(-0.,-0.,-1.));
#76 = DIRECTION('',(1.,0.,0.));
#77 = ADVANCED_FACE('',(#78),#81,.F.);
#78 = FACE_BOUND('',#79,.F.);
#79 = EDGE_LOOP('',(#80));
#80 = ORIENTED_EDGE('',*,*,#21,.T.);
#81 = PLANE('',#82);
#82 = AXIS2_PLACEMENT_3D('',#83,#84,#85);
#83 = CARTESIAN_POINT('',(-2.E-16,2.5E-16,-6.25));
#84 = DIRECTION('',(0.,0.,1.));
#85 = DIRECTION('',(1.,0.,0.));
#86 = ADVANCED_FACE('',(#87),#123,.T.);
#87 = FACE_BOUND('',#88,.F.);
#88 = EDGE_LOOP('',(#89,#90,#98,#105,#106,#107,#116));
#89 = ORIENTED_EDGE('',*,*,#38,.T.);
#90 = ORIENTED_EDGE('',*,*,#91,.T.);
#91 = EDGE_CURVE('',#31,#92,#94,.T.);
#92 = VERTEX_POINT('',#93);
#93 = CARTESIAN_POINT('',(6.25,-1.E-15,-3.5));
#94 = LINE('',#95,#96);
#95 = CARTESIAN_POINT('',(-6.25,0.,-3.5));
#96 = VECTOR('',#97,1.);
#97 = DIRECTION('',(1.,0.,0.));
#98 = ORIENTED_EDGE('',*,*,#99,.T.);
#99 = EDGE_CURVE('',#92,#92,#100,.T.);
#100 = CIRCLE('',#101,3.5);
#101 = AXIS2_PLACEMENT_3D('',#102,#103,#104);
#102 = CARTESIAN_POINT('',(6.25,0.,0.));
#103 = DIRECTION('',(1.,-0.,0.));
#104 = DIRECTION('',(0.,0.,-1.));
#105 = ORIENTED_EDGE('',*,*,#91,.F.);
#106 = ORIENTED_EDGE('',*,*,#65,.T.);
#107 = ORIENTED_EDGE('',*,*,#108,.F.);
#108 = EDGE_CURVE('',#109,#57,#111,.T.);
#109 = VERTEX_POINT('',#110);
#110 = CARTESIAN_POINT('',(3.5,0.,3.5));
#111 = ELLIPSE('',#112,4.949747468306,3.5);
#112 = AXIS2_PLACEMENT_3D('',#113,#114,#115);
#113 = CARTESIAN_POINT('',(0.,0.,-8.9E-16));
#114 = DIRECTION('',(0.707106781187,-1.6E-16,-0.707106781187));
#115 = DIRECTION('',(-0.707106781187,1.6E-16,-0.707106781187));
#116 = ORIENTED_EDGE('',*,*,#117,.F.);
#117 = EDGE_CURVE('',#39,#109,#118,.T.);
#118 = ELLIPSE('',#119,4.949747468306,3.5);
#119 = AXIS2_PLACEMENT_3D('',#120,#121,#122);
#120 = CARTESIAN_POINT('',(0.,0.,-8.9E-16));
#121 = DIRECTION('',(0.707106781187,-1.6E-16,-0.707106781187));
#122 = DIRECTION('',(-0.707106781187,1.6E-16,-0.707106781187));
#123 = CYLINDRICAL_SURFACE('',#124,3.5);
#124 = AXIS2_PLACEMENT_3D('',#125,#126,#127);
#125 = CARTESIAN_POINT('',(-6.25,0.,0.));
#126 = DIRECTION('',(-1.,-0.,0.));
#127 = DIRECTION('',(0.,0.,-1.));
#128 = ADVANCED_FACE('',(#129),#156,.T.);
#129 = FACE_BOUND('',#130,.F.);
#130 = EDGE_LOOP('',(#131,#132,#140,#147,#148,#149));
#131 = ORIENTED_EDGE('',*,*,#56,.T.);
#132 = ORIENTED_EDGE('',*,*,#133,.F.);
#133 = EDGE_CURVE('',#134,#48,#136,.T.);
#134 = VERTEX_POINT('',#135);
#135 = CARTESIAN_POINT('',(-6.25,1.E-15,-3.5));
#136 = LINE('',#137,#138);
#137 = CARTESIAN_POINT('',(-6.25,0.,-3.5));
#138 = VECTOR('',#139,1.);
#139 = DIRECTION('',(1.,0.,0.));
#140 = ORIENTED_EDGE('',*,*,#141,.F.);
#141 = EDGE_CURVE('',#134,#134,#142,.T.);
#142 = CIRCLE('',#143,3.5);
#143 = AXIS2_PLACEMENT_3D('',#144,#145,#146);
#144 = CARTESIAN_POINT('',(-6.25,0.,0.));
#145 = DIRECTION('',(1.,-0.,0.));
#146 = DIRECTION('',(0.,0.,-1.));
#147 = ORIENTED_EDGE('',*,*,#133,.T.);
#148 = ORIENTED_EDGE('',*,*,#47,.T.);
#149 = ORIENTED_EDGE('',*,*,#150,.F.);
#150 = EDGE_CURVE('',#57,#39,#151,.T.);
#151 = ELLIPSE('',#152,4.949747468306,3.5);
#152 = AXIS2_PLACEMENT_3D('',#153,#154,#155);
#153 = CARTESIAN_POINT('',(0.,0.,-8.9E-16));
#154 = DIRECTION('',(-0.707106781187,1.6E-16,-0.707106781187));
#155 = DIRECTION('',(0.707106781187,-1.6E-16,-0.707106781187));
#156 = CYLINDRICAL_SURFACE('',#157,3.5);
#157 = AXIS2_PLACEMENT_3D('',#158,#159,#160);
#158 = CARTESIAN_POINT('',(-6.25,0.,0.));
#159 = DIRECTION('',(-1.,-0.,0.));
#160 = DIRECTION('',(0.,0.,-1.));
#161 = ADVANCED_FACE('',(#162),#183,.T.);
#162 = FACE_BOUND('',#163,.F.);
#163 = EDGE_LOOP('',(#164,#165,#173,#180,#181,#182));
#164 = ORIENTED_EDGE('',*,*,#117,.T.);
#165 = ORIENTED_EDGE('',*,*,#166,.T.);
#166 = EDGE_CURVE('',#109,#167,#169,.T.);
#167 = VERTEX_POINT('',#168);
#168 = CARTESIAN_POINT('',(3.5,0.,6.25));
#169 = LINE('',#170,#171);
#170 = CARTESIAN_POINT('',(3.5,0.,-6.25));
#171 = VECTOR('',#172,1.);
#172 = DIRECTION('',(0.,0.,1.));
#173 = ORIENTED_EDGE('',*,*,#174,.T.);
#174 = EDGE_CURVE('',#167,#167,#175,.T.);
#175 = CIRCLE('',#176,3.5);
#176 = AXIS2_PLACEMENT_3D('',#177,#178,#179);
#177 = CARTESIAN_POINT('',(0.,0.,6.25));
#178 = DIRECTION('',(0.,0.,1.));
#179 = DIRECTION('',(1.,0.,0.));
#180 = ORIENTED_EDGE('',*,*,#166,.F.);
#181 = ORIENTED_EDGE('',*,*,#108,.T.);
#182 = ORIENTED_EDGE('',*,*,#150,.T.);
#183 = CYLINDRICAL_SURFACE('',#184,3.5);
#184 = AXIS2_PLACEMENT_3D('',#185,#186,#187);
#185 = CARTESIAN_POINT('',(0.,0.,-6.25));
#186 = DIRECTION('',(-0.,-0.,-1.));
#187 = DIRECTION('',(1.,0.,0.));
#188 = ADVANCED_FACE('',(#189),#192,.T.);
#189 = FACE_BOUND('',#190,.T.);
#190 = EDGE_LOOP('',(#191));
#191 = ORIENTED_EDGE('',*,*,#99,.T.);
#192 = PLANE('',#193);
#193 = AXIS2_PLACEMENT_3D('',#194,#195,#196);
#194 = CARTESIAN_POINT('',(6.25,2.5E-16,2.E-16));
#195 = DIRECTION('',(1.,0.,0.));
#196 = DIRECTION('',(0.,0.,-1.));
#197 = ADVANCED_FACE('',(#198),#201,.F.);
#198 = FACE_BOUND('',#199,.F.);
#199 = EDGE_LOOP('',(#200));
#200 = ORIENTED_EDGE('',*,*,#141,.T.);
#201 = PLANE('',#202);
#202 = AXIS2_PLACEMENT_3D('',#203,#204,#205);
#203 = CARTESIAN_POINT('',(-6.25,2.5E-16,2.E-16));
#204 = DIRECTION('',(1.,0.,0.));
#205 = DIRECTION('',(0.,0.,-1.));
#206 = ADVANCED_FACE('',(#207),#210,.T.);
#207 = FACE_BOUND('',#208,.T.);
#208 = EDGE_LOOP('',(#209));
#209 = ORIENTED_EDGE('',*,*,#174,.T.);
#210 = PLANE('',#211);
#211 = AXIS2_PLACEMENT_3D('',#212,#213,#214);
#212 = CARTESIAN_POINT('',(-2.E-16,2.5E-16,6.25));
#213 = DIRECTION('',(0.,0.,1.));
#214 = DIRECTION('',(1.,0.,0.));
#215 = ( GEOMETRIC_REPRESENTATION_CONTEXT(3) 
GLOBAL_UNCERTAINTY_ASSIGNED_CONTEXT((#219)) GLOBAL_UNIT_ASSIGNED_CONTEXT
((#216,#217,#218)) REPRESENTATION_CONTEXT('Context #1',
  '3D Context with UNIT and UNCERTAINTY') );
#216 = ( LENGTH_UNIT() NAMED_UNIT(*) SI_UNIT(.MILLI.,.METRE.) );
#217 = ( NAMED_UNIT(*) PLANE_ANGLE_UNIT() SI_UNIT($,.RADIAN.) );
#218 = ( NAMED_UNIT(*) SI_UNIT($,.STERADIAN.) SOLID_ANGLE_UNIT() );
#219 = UNCERTAINTY_MEASURE_WITH_UNIT(LENGTH_MEASURE(1.E-07),#216,
  'distance_accuracy_value','confusion accuracy');
#220 = PRODUCT_RELATED_PRODUCT_CATEGORY('part',$,(#7));
#221 = MECHANICAL_DESIGN_GEOMETRIC_PRESENTATION_REPRESENTATION('',(#222)
  ,#215);
#222 = STYLED_ITEM('color',(#223),#15);
#223 = PRESENTATION_STYLE_ASSIGNMENT((#224,#230));
#224 = SURFACE_STYLE_USAGE(.BOTH.,#225);
#225 = SURFACE_SIDE_STYLE('',(#226));
#226 = SURFACE_STYLE_FILL_AREA(#227);
#227 = FILL_AREA_STYLE('',(#228));
#228 = FILL_AREA_STYLE_COLOUR('',#229);
#229 = COLOUR_RGB('',0.800000010877,0.800000010877,0.800000010877);
#230 = CURVE_STYLE('',#231,POSITIVE_LENGTH_MEASURE(0.1),#232);
#231 = DRAUGHTING_PRE_DEFINED_CURVE_FONT('continuous');
#232 = COLOUR_RGB('',9.803921802644E-02,9.803921802644E-02,
  9.803921802644E-02);
ENDSEC;
END-ISO-10303-21;
