ISO-10303-21;
HEADER;
FILE_DESCRIPTION(('FreeCAD Model'),'2;1');
FILE_NAME('Open CASCADE Shape Model','2024-10-25T22:10:27',(''),(''),
  'Open CASCADE STEP processor 7.7','FreeCAD','Unknown');
FILE_SCHEMA(('AUTOMOTIVE_DESIGN { 1 0 10303 214 1 1 1 1 }'));
ENDSEC;
DATA;
#1 = APPLICATION_PROTOCOL_DEFINITION('international standard',
  'automotive_design',2000,#2);
#2 = APPLICATION_CONTEXT(
  'core data for automotive mechanical design processes');
#3 = SHAPE_DEFINITION_REPRESENTATION(#4,#10);
#4 = PRODUCT_DEFINITION_SHAPE('','',#5);
#5 = PRODUCT_DEFINITION('design','',#6,#9);
#6 = PRODUCT_DEFINITION_FORMATION('','',#7);
#7 = PRODUCT(
'STEMFIE Construction Standard - Template - Block Unit Hole FW 3D 
BU01x01x01 - SCS-TPL-0009 (stemfie.org)',
'STEMFIE Construction Standard - Template - Block Unit Hole FW 3D 
BU01x01x01 - SCS-TPL-0009 (stemfie.org)','',(#8));
#8 = PRODUCT_CONTEXT('',#2,'mechanical');
#9 = PRODUCT_DEFINITION_CONTEXT('part definition',#2,'design');
#10 = ADVANCED_BREP_SHAPE_REPRESENTATION('',(#11,#15),#435);
#11 = AXIS2_PLACEMENT_3D('',#12,#13,#14);
#12 = CARTESIAN_POINT('',(0.,0.,0.));
#13 = DIRECTION('',(0.,0.,1.));
#14 = DIRECTION('',(1.,0.,-0.));
#15 = MANIFOLD_SOLID_BREP('',#16);
#16 = CLOSED_SHELL('',(#17,#104,#172,#240,#300,#309,#318,#327,#336,#376,
    #386,#425));
#17 = ADVANCED_FACE('',(#18),#99,.T.);
#18 = FACE_BOUND('',#19,.F.);
#19 = EDGE_LOOP('',(#20,#31,#39,#46,#47,#56,#65,#74,#83,#92));
#20 = ORIENTED_EDGE('',*,*,#21,.T.);
#21 = EDGE_CURVE('',#22,#24,#26,.T.);
#22 = VERTEX_POINT('',#23);
#23 = CARTESIAN_POINT('',(-2.510229073212,2.510229073212,-2.510229073212
    ));
#24 = VERTEX_POINT('',#25);
#25 = CARTESIAN_POINT('',(7.882583474839E-16,3.55,-3.55));
#26 = ELLIPSE('',#27,5.020458146424,3.55);
#27 = AXIS2_PLACEMENT_3D('',#28,#29,#30);
#28 = CARTESIAN_POINT('',(0.,0.,-8.881784197001E-16));
#29 = DIRECTION('',(-2.355138688026E-16,-0.707106781187,-0.707106781187)
  );
#30 = DIRECTION('',(2.355138688026E-16,0.707106781187,-0.707106781187));
#31 = ORIENTED_EDGE('',*,*,#32,.T.);
#32 = EDGE_CURVE('',#24,#33,#35,.T.);
#33 = VERTEX_POINT('',#34);
#34 = CARTESIAN_POINT('',(2.081668171172E-15,6.25,-3.55));
#35 = LINE('',#36,#37);
#36 = CARTESIAN_POINT('',(-2.081668171172E-15,-6.25,-3.55));
#37 = VECTOR('',#38,1.);
#38 = DIRECTION('',(3.330669073875E-16,1.,1.110223024625E-16));
#39 = ORIENTED_EDGE('',*,*,#40,.T.);
#40 = EDGE_CURVE('',#33,#33,#41,.T.);
#41 = CIRCLE('',#42,3.55);
#42 = AXIS2_PLACEMENT_3D('',#43,#44,#45);
#43 = CARTESIAN_POINT('',(2.081668171172E-15,6.25,6.938893903907E-16));
#44 = DIRECTION('',(3.330669073875E-16,1.,1.110223024625E-16));
#45 = DIRECTION('',(2.465190328816E-32,1.110223024625E-16,-1.));
#46 = ORIENTED_EDGE('',*,*,#32,.F.);
#47 = ORIENTED_EDGE('',*,*,#48,.T.);
#48 = EDGE_CURVE('',#24,#49,#51,.T.);
#49 = VERTEX_POINT('',#50);
#50 = CARTESIAN_POINT('',(2.510229073212,2.510229073212,-2.510229073212)
  );
#51 = ELLIPSE('',#52,5.020458146424,3.55);
#52 = AXIS2_PLACEMENT_3D('',#53,#54,#55);
#53 = CARTESIAN_POINT('',(0.,0.,-8.881784197001E-16));
#54 = DIRECTION('',(-2.355138688026E-16,-0.707106781187,-0.707106781187)
  );
#55 = DIRECTION('',(2.355138688026E-16,0.707106781187,-0.707106781187));
#56 = ORIENTED_EDGE('',*,*,#57,.F.);
#57 = EDGE_CURVE('',#58,#49,#60,.T.);
#58 = VERTEX_POINT('',#59);
#59 = CARTESIAN_POINT('',(2.510229073212,2.510229073212,2.510229073212)
  );
#60 = ELLIPSE('',#61,5.020458146424,3.55);
#61 = AXIS2_PLACEMENT_3D('',#62,#63,#64);
#62 = CARTESIAN_POINT('',(-1.7763568394E-15,1.387778780781E-15,
    -6.938893903907E-16));
#63 = DIRECTION('',(-0.707106781187,0.707106781187,2.114798963814E-33));
#64 = DIRECTION('',(-0.707106781187,-0.707106781187,-1.570092458684E-16)
  );
#65 = ORIENTED_EDGE('',*,*,#66,.F.);
#66 = EDGE_CURVE('',#67,#58,#69,.T.);
#67 = VERTEX_POINT('',#68);
#68 = CARTESIAN_POINT('',(3.941291737419E-16,3.55,3.55));
#69 = ELLIPSE('',#70,5.020458146424,3.55);
#70 = AXIS2_PLACEMENT_3D('',#71,#72,#73);
#71 = CARTESIAN_POINT('',(0.,0.,-8.881784197001E-16));
#72 = DIRECTION('',(2.355138688026E-16,0.707106781187,-0.707106781187));
#73 = DIRECTION('',(-2.355138688026E-16,-0.707106781187,-0.707106781187)
  );
#74 = ORIENTED_EDGE('',*,*,#75,.F.);
#75 = EDGE_CURVE('',#76,#67,#78,.T.);
#76 = VERTEX_POINT('',#77);
#77 = CARTESIAN_POINT('',(-2.510229073212,2.510229073212,2.510229073212)
  );
#78 = ELLIPSE('',#79,5.020458146424,3.55);
#79 = AXIS2_PLACEMENT_3D('',#80,#81,#82);
#80 = CARTESIAN_POINT('',(0.,0.,-8.881784197001E-16));
#81 = DIRECTION('',(2.355138688026E-16,0.707106781187,-0.707106781187));
#82 = DIRECTION('',(-2.355138688026E-16,-0.707106781187,-0.707106781187)
  );
#83 = ORIENTED_EDGE('',*,*,#84,.T.);
#84 = EDGE_CURVE('',#76,#85,#87,.T.);
#85 = VERTEX_POINT('',#86);
#86 = CARTESIAN_POINT('',(-3.55,3.55,-2.591397766934E-16));
#87 = ELLIPSE('',#88,5.020458146424,3.55);
#88 = AXIS2_PLACEMENT_3D('',#89,#90,#91);
#89 = CARTESIAN_POINT('',(-1.7763568394E-15,1.387778780781E-15,
    -6.938893903907E-16));
#90 = DIRECTION('',(-0.707106781187,-0.707106781187,-1.570092458684E-16)
  );
#91 = DIRECTION('',(-0.707106781187,0.707106781187,1.083056295592E-32));
#92 = ORIENTED_EDGE('',*,*,#93,.T.);
#93 = EDGE_CURVE('',#85,#22,#94,.T.);
#94 = ELLIPSE('',#95,5.020458146424,3.55);
#95 = AXIS2_PLACEMENT_3D('',#96,#97,#98);
#96 = CARTESIAN_POINT('',(-1.7763568394E-15,1.387778780781E-15,
    -6.938893903907E-16));
#97 = DIRECTION('',(-0.707106781187,-0.707106781187,-1.570092458684E-16)
  );
#98 = DIRECTION('',(-0.707106781187,0.707106781187,1.083056295592E-32));
#99 = CYLINDRICAL_SURFACE('',#100,3.55);
#100 = AXIS2_PLACEMENT_3D('',#101,#102,#103);
#101 = CARTESIAN_POINT('',(-2.081668171172E-15,-6.25,-6.938893903907E-16
    ));
#102 = DIRECTION('',(-3.330669073875E-16,-1.,-1.110223024625E-16));
#103 = DIRECTION('',(2.465190328816E-32,1.110223024625E-16,-1.));
#104 = ADVANCED_FACE('',(#105),#167,.T.);
#105 = FACE_BOUND('',#106,.F.);
#106 = EDGE_LOOP('',(#107,#116,#124,#131,#132,#141,#150,#159,#166));
#107 = ORIENTED_EDGE('',*,*,#108,.T.);
#108 = EDGE_CURVE('',#49,#109,#111,.T.);
#109 = VERTEX_POINT('',#110);
#110 = CARTESIAN_POINT('',(3.55,-3.941291737419E-16,-3.55));
#111 = ELLIPSE('',#112,5.020458146424,3.55);
#112 = AXIS2_PLACEMENT_3D('',#113,#114,#115);
#113 = CARTESIAN_POINT('',(0.,1.387778780781E-15,-6.938893903907E-16));
#114 = DIRECTION('',(-0.707106781187,1.570092458684E-16,-0.707106781187)
  );
#115 = DIRECTION('',(-0.707106781187,1.570092458684E-16,0.707106781187)
  );
#116 = ORIENTED_EDGE('',*,*,#117,.T.);
#117 = EDGE_CURVE('',#109,#118,#120,.T.);
#118 = VERTEX_POINT('',#119);
#119 = CARTESIAN_POINT('',(6.25,-1.387778780781E-15,-3.55));
#120 = LINE('',#121,#122);
#121 = CARTESIAN_POINT('',(-6.25,1.387778780781E-15,-3.55));
#122 = VECTOR('',#123,1.);
#123 = DIRECTION('',(1.,-2.22044604925E-16,1.110223024625E-16));
#124 = ORIENTED_EDGE('',*,*,#125,.T.);
#125 = EDGE_CURVE('',#118,#118,#126,.T.);
#126 = CIRCLE('',#127,3.55);
#127 = AXIS2_PLACEMENT_3D('',#128,#129,#130);
#128 = CARTESIAN_POINT('',(6.25,-1.387778780781E-15,6.938893903907E-16)
  );
#129 = DIRECTION('',(1.,-2.22044604925E-16,1.110223024625E-16));
#130 = DIRECTION('',(1.110223024625E-16,-1.232595164408E-32,-1.));
#131 = ORIENTED_EDGE('',*,*,#117,.F.);
#132 = ORIENTED_EDGE('',*,*,#133,.T.);
#133 = EDGE_CURVE('',#109,#134,#136,.T.);
#134 = VERTEX_POINT('',#135);
#135 = CARTESIAN_POINT('',(2.510229073212,-2.510229073212,
    -2.510229073212));
#136 = ELLIPSE('',#137,5.020458146424,3.55);
#137 = AXIS2_PLACEMENT_3D('',#138,#139,#140);
#138 = CARTESIAN_POINT('',(0.,1.387778780781E-15,-6.938893903907E-16));
#139 = DIRECTION('',(-0.707106781187,1.570092458684E-16,-0.707106781187)
  );
#140 = DIRECTION('',(-0.707106781187,1.570092458684E-16,0.707106781187)
  );
#141 = ORIENTED_EDGE('',*,*,#142,.T.);
#142 = EDGE_CURVE('',#134,#143,#145,.T.);
#143 = VERTEX_POINT('',#144);
#144 = CARTESIAN_POINT('',(2.510229073212,-2.510229073212,2.510229073212
    ));
#145 = ELLIPSE('',#146,5.020458146424,3.55);
#146 = AXIS2_PLACEMENT_3D('',#147,#148,#149);
#147 = CARTESIAN_POINT('',(-1.7763568394E-15,1.387778780781E-15,
    -6.938893903907E-16));
#148 = DIRECTION('',(-0.707106781187,-0.707106781187,-1.570092458684E-16
    ));
#149 = DIRECTION('',(-0.707106781187,0.707106781187,1.083056295592E-32)
  );
#150 = ORIENTED_EDGE('',*,*,#151,.T.);
#151 = EDGE_CURVE('',#143,#152,#154,.T.);
#152 = VERTEX_POINT('',#153);
#153 = CARTESIAN_POINT('',(3.55,0.,3.55));
#154 = ELLIPSE('',#155,5.020458146424,3.55);
#155 = AXIS2_PLACEMENT_3D('',#156,#157,#158);
#156 = CARTESIAN_POINT('',(0.,1.387778780781E-15,-6.938893903907E-16));
#157 = DIRECTION('',(-0.707106781187,1.570092458684E-16,0.707106781187)
  );
#158 = DIRECTION('',(-0.707106781187,1.570092458684E-16,-0.707106781187)
  );
#159 = ORIENTED_EDGE('',*,*,#160,.T.);
#160 = EDGE_CURVE('',#152,#58,#161,.T.);
#161 = ELLIPSE('',#162,5.020458146424,3.55);
#162 = AXIS2_PLACEMENT_3D('',#163,#164,#165);
#163 = CARTESIAN_POINT('',(0.,1.387778780781E-15,-6.938893903907E-16));
#164 = DIRECTION('',(-0.707106781187,1.570092458684E-16,0.707106781187)
  );
#165 = DIRECTION('',(-0.707106781187,1.570092458684E-16,-0.707106781187)
  );
#166 = ORIENTED_EDGE('',*,*,#57,.T.);
#167 = CYLINDRICAL_SURFACE('',#168,3.55);
#168 = AXIS2_PLACEMENT_3D('',#169,#170,#171);
#169 = CARTESIAN_POINT('',(-6.25,1.387778780781E-15,-6.938893903907E-16)
  );
#170 = DIRECTION('',(-1.,2.22044604925E-16,-1.110223024625E-16));
#171 = DIRECTION('',(1.110223024625E-16,-1.232595164408E-32,-1.));
#172 = ADVANCED_FACE('',(#173),#235,.T.);
#173 = FACE_BOUND('',#174,.F.);
#174 = EDGE_LOOP('',(#175,#184,#192,#199,#200,#209,#218,#227,#234));
#175 = ORIENTED_EDGE('',*,*,#176,.T.);
#176 = EDGE_CURVE('',#134,#177,#179,.T.);
#177 = VERTEX_POINT('',#178);
#178 = CARTESIAN_POINT('',(-1.182387521226E-15,-3.55,-3.55));
#179 = ELLIPSE('',#180,5.020458146424,3.55);
#180 = AXIS2_PLACEMENT_3D('',#181,#182,#183);
#181 = CARTESIAN_POINT('',(0.,0.,-8.881784197001E-16));
#182 = DIRECTION('',(2.355138688026E-16,0.707106781187,-0.707106781187)
  );
#183 = DIRECTION('',(-2.355138688026E-16,-0.707106781187,-0.707106781187
    ));
#184 = ORIENTED_EDGE('',*,*,#185,.F.);
#185 = EDGE_CURVE('',#186,#177,#188,.T.);
#186 = VERTEX_POINT('',#187);
#187 = CARTESIAN_POINT('',(-2.081668171172E-15,-6.25,-3.55));
#188 = LINE('',#189,#190);
#189 = CARTESIAN_POINT('',(-2.081668171172E-15,-6.25,-3.55));
#190 = VECTOR('',#191,1.);
#191 = DIRECTION('',(3.330669073875E-16,1.,1.110223024625E-16));
#192 = ORIENTED_EDGE('',*,*,#193,.F.);
#193 = EDGE_CURVE('',#186,#186,#194,.T.);
#194 = CIRCLE('',#195,3.55);
#195 = AXIS2_PLACEMENT_3D('',#196,#197,#198);
#196 = CARTESIAN_POINT('',(-2.081668171172E-15,-6.25,-6.938893903907E-16
    ));
#197 = DIRECTION('',(3.330669073875E-16,1.,1.110223024625E-16));
#198 = DIRECTION('',(2.465190328816E-32,1.110223024625E-16,-1.));
#199 = ORIENTED_EDGE('',*,*,#185,.T.);
#200 = ORIENTED_EDGE('',*,*,#201,.T.);
#201 = EDGE_CURVE('',#177,#202,#204,.T.);
#202 = VERTEX_POINT('',#203);
#203 = CARTESIAN_POINT('',(-2.510229073212,-2.510229073212,
    -2.510229073212));
#204 = ELLIPSE('',#205,5.020458146424,3.55);
#205 = AXIS2_PLACEMENT_3D('',#206,#207,#208);
#206 = CARTESIAN_POINT('',(0.,0.,-8.881784197001E-16));
#207 = DIRECTION('',(2.355138688026E-16,0.707106781187,-0.707106781187)
  );
#208 = DIRECTION('',(-2.355138688026E-16,-0.707106781187,-0.707106781187
    ));
#209 = ORIENTED_EDGE('',*,*,#210,.T.);
#210 = EDGE_CURVE('',#202,#211,#213,.T.);
#211 = VERTEX_POINT('',#212);
#212 = CARTESIAN_POINT('',(-3.55,-3.55,-1.916897351572E-15));
#213 = ELLIPSE('',#214,5.020458146424,3.55);
#214 = AXIS2_PLACEMENT_3D('',#215,#216,#217);
#215 = CARTESIAN_POINT('',(-1.7763568394E-15,1.387778780781E-15,
    -6.938893903907E-16));
#216 = DIRECTION('',(-0.707106781187,0.707106781187,2.114798963814E-33)
  );
#217 = DIRECTION('',(-0.707106781187,-0.707106781187,-1.570092458684E-16
    ));
#218 = ORIENTED_EDGE('',*,*,#219,.T.);
#219 = EDGE_CURVE('',#211,#220,#222,.T.);
#220 = VERTEX_POINT('',#221);
#221 = CARTESIAN_POINT('',(-2.510229073212,-2.510229073212,
    2.510229073212));
#222 = ELLIPSE('',#223,5.020458146424,3.55);
#223 = AXIS2_PLACEMENT_3D('',#224,#225,#226);
#224 = CARTESIAN_POINT('',(-1.7763568394E-15,1.387778780781E-15,
    -6.938893903907E-16));
#225 = DIRECTION('',(-0.707106781187,0.707106781187,2.114798963814E-33)
  );
#226 = DIRECTION('',(-0.707106781187,-0.707106781187,-1.570092458684E-16
    ));
#227 = ORIENTED_EDGE('',*,*,#228,.F.);
#228 = EDGE_CURVE('',#143,#220,#229,.T.);
#229 = ELLIPSE('',#230,5.020458146424,3.55);
#230 = AXIS2_PLACEMENT_3D('',#231,#232,#233);
#231 = CARTESIAN_POINT('',(0.,0.,-8.881784197001E-16));
#232 = DIRECTION('',(-2.355138688026E-16,-0.707106781187,-0.707106781187
    ));
#233 = DIRECTION('',(2.355138688026E-16,0.707106781187,-0.707106781187)
  );
#234 = ORIENTED_EDGE('',*,*,#142,.F.);
#235 = CYLINDRICAL_SURFACE('',#236,3.55);
#236 = AXIS2_PLACEMENT_3D('',#237,#238,#239);
#237 = CARTESIAN_POINT('',(-2.081668171172E-15,-6.25,-6.938893903907E-16
    ));
#238 = DIRECTION('',(-3.330669073875E-16,-1.,-1.110223024625E-16));
#239 = DIRECTION('',(2.465190328816E-32,1.110223024625E-16,-1.));
#240 = ADVANCED_FACE('',(#241),#295,.T.);
#241 = FACE_BOUND('',#242,.F.);
#242 = EDGE_LOOP('',(#243,#252,#260,#267,#268,#275,#276,#277,#286,#293,
    #294));
#243 = ORIENTED_EDGE('',*,*,#244,.F.);
#244 = EDGE_CURVE('',#245,#202,#247,.T.);
#245 = VERTEX_POINT('',#246);
#246 = CARTESIAN_POINT('',(-3.55,7.882583474839E-16,-3.55));
#247 = ELLIPSE('',#248,5.020458146424,3.55);
#248 = AXIS2_PLACEMENT_3D('',#249,#250,#251);
#249 = CARTESIAN_POINT('',(0.,1.387778780781E-15,-6.938893903907E-16));
#250 = DIRECTION('',(-0.707106781187,1.570092458684E-16,0.707106781187)
  );
#251 = DIRECTION('',(-0.707106781187,1.570092458684E-16,-0.707106781187)
  );
#252 = ORIENTED_EDGE('',*,*,#253,.F.);
#253 = EDGE_CURVE('',#254,#245,#256,.T.);
#254 = VERTEX_POINT('',#255);
#255 = CARTESIAN_POINT('',(-6.25,1.387778780781E-15,-3.55));
#256 = LINE('',#257,#258);
#257 = CARTESIAN_POINT('',(-6.25,1.387778780781E-15,-3.55));
#258 = VECTOR('',#259,1.);
#259 = DIRECTION('',(1.,-2.22044604925E-16,1.110223024625E-16));
#260 = ORIENTED_EDGE('',*,*,#261,.F.);
#261 = EDGE_CURVE('',#254,#254,#262,.T.);
#262 = CIRCLE('',#263,3.55);
#263 = AXIS2_PLACEMENT_3D('',#264,#265,#266);
#264 = CARTESIAN_POINT('',(-6.25,1.387778780781E-15,-6.938893903907E-16)
  );
#265 = DIRECTION('',(1.,-2.22044604925E-16,1.110223024625E-16));
#266 = DIRECTION('',(1.110223024625E-16,-1.232595164408E-32,-1.));
#267 = ORIENTED_EDGE('',*,*,#253,.T.);
#268 = ORIENTED_EDGE('',*,*,#269,.F.);
#269 = EDGE_CURVE('',#22,#245,#270,.T.);
#270 = ELLIPSE('',#271,5.020458146424,3.55);
#271 = AXIS2_PLACEMENT_3D('',#272,#273,#274);
#272 = CARTESIAN_POINT('',(0.,1.387778780781E-15,-6.938893903907E-16));
#273 = DIRECTION('',(-0.707106781187,1.570092458684E-16,0.707106781187)
  );
#274 = DIRECTION('',(-0.707106781187,1.570092458684E-16,-0.707106781187)
  );
#275 = ORIENTED_EDGE('',*,*,#93,.F.);
#276 = ORIENTED_EDGE('',*,*,#84,.F.);
#277 = ORIENTED_EDGE('',*,*,#278,.F.);
#278 = EDGE_CURVE('',#279,#76,#281,.T.);
#279 = VERTEX_POINT('',#280);
#280 = CARTESIAN_POINT('',(-3.55,1.741287514568E-15,3.55));
#281 = ELLIPSE('',#282,5.020458146424,3.55);
#282 = AXIS2_PLACEMENT_3D('',#283,#284,#285);
#283 = CARTESIAN_POINT('',(0.,1.387778780781E-15,-6.938893903907E-16));
#284 = DIRECTION('',(-0.707106781187,1.570092458684E-16,-0.707106781187)
  );
#285 = DIRECTION('',(-0.707106781187,1.570092458684E-16,0.707106781187)
  );
#286 = ORIENTED_EDGE('',*,*,#287,.F.);
#287 = EDGE_CURVE('',#220,#279,#288,.T.);
#288 = ELLIPSE('',#289,5.020458146424,3.55);
#289 = AXIS2_PLACEMENT_3D('',#290,#291,#292);
#290 = CARTESIAN_POINT('',(0.,1.387778780781E-15,-6.938893903907E-16));
#291 = DIRECTION('',(-0.707106781187,1.570092458684E-16,-0.707106781187)
  );
#292 = DIRECTION('',(-0.707106781187,1.570092458684E-16,0.707106781187)
  );
#293 = ORIENTED_EDGE('',*,*,#219,.F.);
#294 = ORIENTED_EDGE('',*,*,#210,.F.);
#295 = CYLINDRICAL_SURFACE('',#296,3.55);
#296 = AXIS2_PLACEMENT_3D('',#297,#298,#299);
#297 = CARTESIAN_POINT('',(-6.25,1.387778780781E-15,-6.938893903907E-16)
  );
#298 = DIRECTION('',(-1.,2.22044604925E-16,-1.110223024625E-16));
#299 = DIRECTION('',(1.110223024625E-16,-1.232595164408E-32,-1.));
#300 = ADVANCED_FACE('',(#301),#304,.T.);
#301 = FACE_BOUND('',#302,.T.);
#302 = EDGE_LOOP('',(#303));
#303 = ORIENTED_EDGE('',*,*,#40,.T.);
#304 = PLANE('',#305);
#305 = AXIS2_PLACEMENT_3D('',#306,#307,#308);
#306 = CARTESIAN_POINT('',(1.841390305539E-15,6.25,7.901879912738E-16));
#307 = DIRECTION('',(3.330669073875E-16,1.,1.110223024625E-16));
#308 = DIRECTION('',(2.465190328816E-32,1.110223024625E-16,-1.));
#309 = ADVANCED_FACE('',(#310),#313,.T.);
#310 = FACE_BOUND('',#311,.T.);
#311 = EDGE_LOOP('',(#312));
#312 = ORIENTED_EDGE('',*,*,#125,.T.);
#313 = PLANE('',#314);
#314 = AXIS2_PLACEMENT_3D('',#315,#316,#317);
#315 = CARTESIAN_POINT('',(6.25,-1.147500915148E-15,7.901879912738E-16)
  );
#316 = DIRECTION('',(1.,-2.22044604925E-16,1.110223024625E-16));
#317 = DIRECTION('',(1.110223024625E-16,-1.232595164408E-32,-1.));
#318 = ADVANCED_FACE('',(#319),#322,.F.);
#319 = FACE_BOUND('',#320,.F.);
#320 = EDGE_LOOP('',(#321));
#321 = ORIENTED_EDGE('',*,*,#193,.T.);
#322 = PLANE('',#323);
#323 = AXIS2_PLACEMENT_3D('',#324,#325,#326);
#324 = CARTESIAN_POINT('',(-2.321946036805E-15,-6.25,-5.975907895077E-16
    ));
#325 = DIRECTION('',(3.330669073875E-16,1.,1.110223024625E-16));
#326 = DIRECTION('',(2.465190328816E-32,1.110223024625E-16,-1.));
#327 = ADVANCED_FACE('',(#328),#331,.F.);
#328 = FACE_BOUND('',#329,.F.);
#329 = EDGE_LOOP('',(#330));
#330 = ORIENTED_EDGE('',*,*,#261,.T.);
#331 = PLANE('',#332);
#332 = AXIS2_PLACEMENT_3D('',#333,#334,#335);
#333 = CARTESIAN_POINT('',(-6.25,1.628056646415E-15,-5.975907895077E-16)
  );
#334 = DIRECTION('',(1.,-2.22044604925E-16,1.110223024625E-16));
#335 = DIRECTION('',(1.110223024625E-16,-1.232595164408E-32,-1.));
#336 = ADVANCED_FACE('',(#337),#371,.T.);
#337 = FACE_BOUND('',#338,.F.);
#338 = EDGE_LOOP('',(#339,#340,#341,#342,#343,#344,#351,#360,#367,#368,
    #369,#370));
#339 = ORIENTED_EDGE('',*,*,#269,.T.);
#340 = ORIENTED_EDGE('',*,*,#244,.T.);
#341 = ORIENTED_EDGE('',*,*,#201,.F.);
#342 = ORIENTED_EDGE('',*,*,#176,.F.);
#343 = ORIENTED_EDGE('',*,*,#133,.F.);
#344 = ORIENTED_EDGE('',*,*,#345,.T.);
#345 = EDGE_CURVE('',#109,#346,#348,.T.);
#346 = VERTEX_POINT('',#347);
#347 = CARTESIAN_POINT('',(3.55,0.,-6.25));
#348 = B_SPLINE_CURVE_WITH_KNOTS('',1,(#349,#350),.UNSPECIFIED.,.F.,.F.,
  (2,2),(-2.7,0.),.PIECEWISE_BEZIER_KNOTS.);
#349 = CARTESIAN_POINT('',(3.55,0.,-3.55));
#350 = CARTESIAN_POINT('',(3.55,0.,-6.25));
#351 = ORIENTED_EDGE('',*,*,#352,.F.);
#352 = EDGE_CURVE('',#353,#346,#355,.T.);
#353 = VERTEX_POINT('',#354);
#354 = CARTESIAN_POINT('',(3.941291737419E-16,3.55,-6.25));
#355 = CIRCLE('',#356,3.55);
#356 = AXIS2_PLACEMENT_3D('',#357,#358,#359);
#357 = CARTESIAN_POINT('',(0.,0.,-6.25));
#358 = DIRECTION('',(0.,0.,1.));
#359 = DIRECTION('',(1.,0.,0.));
#360 = ORIENTED_EDGE('',*,*,#361,.F.);
#361 = EDGE_CURVE('',#346,#353,#362,.T.);
#362 = CIRCLE('',#363,3.55);
#363 = AXIS2_PLACEMENT_3D('',#364,#365,#366);
#364 = CARTESIAN_POINT('',(0.,0.,-6.25));
#365 = DIRECTION('',(0.,0.,1.));
#366 = DIRECTION('',(1.,0.,0.));
#367 = ORIENTED_EDGE('',*,*,#345,.F.);
#368 = ORIENTED_EDGE('',*,*,#108,.F.);
#369 = ORIENTED_EDGE('',*,*,#48,.F.);
#370 = ORIENTED_EDGE('',*,*,#21,.F.);
#371 = CYLINDRICAL_SURFACE('',#372,3.55);
#372 = AXIS2_PLACEMENT_3D('',#373,#374,#375);
#373 = CARTESIAN_POINT('',(0.,0.,-6.25));
#374 = DIRECTION('',(-0.,-0.,-1.));
#375 = DIRECTION('',(1.,0.,0.));
#376 = ADVANCED_FACE('',(#377),#381,.F.);
#377 = FACE_BOUND('',#378,.F.);
#378 = EDGE_LOOP('',(#379,#380));
#379 = ORIENTED_EDGE('',*,*,#361,.T.);
#380 = ORIENTED_EDGE('',*,*,#352,.T.);
#381 = PLANE('',#382);
#382 = AXIS2_PLACEMENT_3D('',#383,#384,#385);
#383 = CARTESIAN_POINT('',(-9.629860088306E-17,2.402778656331E-16,-6.25)
  );
#384 = DIRECTION('',(0.,0.,1.));
#385 = DIRECTION('',(1.,0.,0.));
#386 = ADVANCED_FACE('',(#387),#420,.T.);
#387 = FACE_BOUND('',#388,.F.);
#388 = EDGE_LOOP('',(#389,#390,#397,#406,#413,#414,#415,#416,#417,#418,
    #419));
#389 = ORIENTED_EDGE('',*,*,#160,.F.);
#390 = ORIENTED_EDGE('',*,*,#391,.F.);
#391 = EDGE_CURVE('',#392,#152,#394,.T.);
#392 = VERTEX_POINT('',#393);
#393 = CARTESIAN_POINT('',(3.55,0.,6.25));
#394 = B_SPLINE_CURVE_WITH_KNOTS('',1,(#395,#396),.UNSPECIFIED.,.F.,.F.,
  (2,2),(-12.5,-9.8),.PIECEWISE_BEZIER_KNOTS.);
#395 = CARTESIAN_POINT('',(3.55,-8.694992273946E-16,6.25));
#396 = CARTESIAN_POINT('',(3.55,-8.694992273946E-16,3.55));
#397 = ORIENTED_EDGE('',*,*,#398,.T.);
#398 = EDGE_CURVE('',#392,#399,#401,.T.);
#399 = VERTEX_POINT('',#400);
#400 = CARTESIAN_POINT('',(3.941291737419E-16,3.55,6.25));
#401 = CIRCLE('',#402,3.55);
#402 = AXIS2_PLACEMENT_3D('',#403,#404,#405);
#403 = CARTESIAN_POINT('',(0.,0.,6.25));
#404 = DIRECTION('',(0.,0.,1.));
#405 = DIRECTION('',(1.,0.,0.));
#406 = ORIENTED_EDGE('',*,*,#407,.T.);
#407 = EDGE_CURVE('',#399,#392,#408,.T.);
#408 = CIRCLE('',#409,3.55);
#409 = AXIS2_PLACEMENT_3D('',#410,#411,#412);
#410 = CARTESIAN_POINT('',(0.,0.,6.25));
#411 = DIRECTION('',(0.,0.,1.));
#412 = DIRECTION('',(1.,0.,0.));
#413 = ORIENTED_EDGE('',*,*,#391,.T.);
#414 = ORIENTED_EDGE('',*,*,#151,.F.);
#415 = ORIENTED_EDGE('',*,*,#228,.T.);
#416 = ORIENTED_EDGE('',*,*,#287,.T.);
#417 = ORIENTED_EDGE('',*,*,#278,.T.);
#418 = ORIENTED_EDGE('',*,*,#75,.T.);
#419 = ORIENTED_EDGE('',*,*,#66,.T.);
#420 = CYLINDRICAL_SURFACE('',#421,3.55);
#421 = AXIS2_PLACEMENT_3D('',#422,#423,#424);
#422 = CARTESIAN_POINT('',(0.,0.,-6.25));
#423 = DIRECTION('',(-0.,-0.,-1.));
#424 = DIRECTION('',(1.,0.,0.));
#425 = ADVANCED_FACE('',(#426),#430,.T.);
#426 = FACE_BOUND('',#427,.T.);
#427 = EDGE_LOOP('',(#428,#429));
#428 = ORIENTED_EDGE('',*,*,#398,.T.);
#429 = ORIENTED_EDGE('',*,*,#407,.T.);
#430 = PLANE('',#431);
#431 = AXIS2_PLACEMENT_3D('',#432,#433,#434);
#432 = CARTESIAN_POINT('',(-9.629860088306E-17,2.402778656331E-16,6.25)
  );
#433 = DIRECTION('',(0.,0.,1.));
#434 = DIRECTION('',(1.,0.,0.));
#435 = ( GEOMETRIC_REPRESENTATION_CONTEXT(3) 
GLOBAL_UNCERTAINTY_ASSIGNED_CONTEXT((#439)) GLOBAL_UNIT_ASSIGNED_CONTEXT
((#436,#437,#438)) REPRESENTATION_CONTEXT('Context #1',
  '3D Context with UNIT and UNCERTAINTY') );
#436 = ( LENGTH_UNIT() NAMED_UNIT(*) SI_UNIT(.MILLI.,.METRE.) );
#437 = ( NAMED_UNIT(*) PLANE_ANGLE_UNIT() SI_UNIT($,.RADIAN.) );
#438 = ( NAMED_UNIT(*) SI_UNIT($,.STERADIAN.) SOLID_ANGLE_UNIT() );
#439 = UNCERTAINTY_MEASURE_WITH_UNIT(LENGTH_MEASURE(2.E-06),#436,
  'distance_accuracy_value','confusion accuracy');
#440 = PRODUCT_RELATED_PRODUCT_CATEGORY('part',$,(#7));
#441 = MECHANICAL_DESIGN_GEOMETRIC_PRESENTATION_REPRESENTATION('',(#442)
  ,#435);
#442 = STYLED_ITEM('color',(#443),#15);
#443 = PRESENTATION_STYLE_ASSIGNMENT((#444,#450));
#444 = SURFACE_STYLE_USAGE(.BOTH.,#445);
#445 = SURFACE_SIDE_STYLE('',(#446));
#446 = SURFACE_STYLE_FILL_AREA(#447);
#447 = FILL_AREA_STYLE('',(#448));
#448 = FILL_AREA_STYLE_COLOUR('',#449);
#449 = COLOUR_RGB('',0.800000010877,0.800000010877,0.800000010877);
#450 = CURVE_STYLE('',#451,POSITIVE_LENGTH_MEASURE(0.1),#452);
#451 = DRAUGHTING_PRE_DEFINED_CURVE_FONT('continuous');
#452 = COLOUR_RGB('',9.803921802644E-02,9.803921802644E-02,
  9.803921802644E-02);
ENDSEC;
END-ISO-10303-21;
