ISO-10303-21;
HEADER;
FILE_DESCRIPTION(('FreeCAD Model'),'2;1');
FILE_NAME('Open CASCADE Shape Model','2024-10-26T21:20:01',(''),(''),
  'Open CASCADE STEP processor 7.7','FreeCAD','Unknown');
FILE_SCHEMA(('AUTOMOTIVE_DESIGN { 1 0 10303 214 1 1 1 1 }'));
ENDSEC;
DATA;
#1 = APPLICATION_PROTOCOL_DEFINITION('international standard',
  'automotive_design',2000,#2);
#2 = APPLICATION_CONTEXT(
  'core data for automotive mechanical design processes');
#3 = SHAPE_DEFINITION_REPRESENTATION(#4,#10);
#4 = PRODUCT_DEFINITION_SHAPE('','',#5);
#5 = PRODUCT_DEFINITION('design','',#6,#9);
#6 = PRODUCT_DEFINITION_FORMATION('','',#7);
#7 = PRODUCT(
'STEMFIE Construction Standard - Template - Shaft - Plain BU01x6.6mm - 
SCS-TPL-0016 (stemfie.org)',
'STEMFIE Construction Standard - Template - Shaft - Plain BU01x6.6mm - 
SCS-TPL-0016 (stemfie.org)','',(#8));
#8 = PRODUCT_CONTEXT('',#2,'mechanical');
#9 = PRODUCT_DEFINITION_CONTEXT('part definition',#2,'design');
#10 = ADVANCED_BREP_SHAPE_REPRESENTATION('',(#11,#15),#208);
#11 = AXIS2_PLACEMENT_3D('',#12,#13,#14);
#12 = CARTESIAN_POINT('',(0.,0.,0.));
#13 = DIRECTION('',(0.,0.,1.));
#14 = DIRECTION('',(1.,0.,-0.));
#15 = MANIFOLD_SOLID_BREP('',#16);
#16 = CLOSED_SHELL('',(#17,#59,#90,#123,#145,#178,#193));
#17 = ADVANCED_FACE('',(#18),#54,.T.);
#18 = FACE_BOUND('',#19,.F.);
#19 = EDGE_LOOP('',(#20,#30,#39,#47));
#20 = ORIENTED_EDGE('',*,*,#21,.T.);
#21 = EDGE_CURVE('',#22,#24,#26,.T.);
#22 = VERTEX_POINT('',#23);
#23 = CARTESIAN_POINT('',(-25.,-2.154065922854,2.5));
#24 = VERTEX_POINT('',#25);
#25 = CARTESIAN_POINT('',(-12.5,-2.154065922854,2.5));
#26 = LINE('',#27,#28);
#27 = CARTESIAN_POINT('',(-25.,-2.154065922854,2.5));
#28 = VECTOR('',#29,1.);
#29 = DIRECTION('',(1.,-2.2E-16,0.));
#30 = ORIENTED_EDGE('',*,*,#31,.T.);
#31 = EDGE_CURVE('',#24,#32,#34,.T.);
#32 = VERTEX_POINT('',#33);
#33 = CARTESIAN_POINT('',(-12.5,-2.154065922854,-2.5));
#34 = CIRCLE('',#35,3.3);
#35 = AXIS2_PLACEMENT_3D('',#36,#37,#38);
#36 = CARTESIAN_POINT('',(-12.5,-3.E-15,0.));
#37 = DIRECTION('',(1.,0.,0.));
#38 = DIRECTION('',(0.,1.,0.));
#39 = ORIENTED_EDGE('',*,*,#40,.F.);
#40 = EDGE_CURVE('',#41,#32,#43,.T.);
#41 = VERTEX_POINT('',#42);
#42 = CARTESIAN_POINT('',(-25.,-2.154065922854,-2.5));
#43 = LINE('',#44,#45);
#44 = CARTESIAN_POINT('',(-25.,-2.154065922854,-2.5));
#45 = VECTOR('',#46,1.);
#46 = DIRECTION('',(1.,-2.2E-16,0.));
#47 = ORIENTED_EDGE('',*,*,#48,.F.);
#48 = EDGE_CURVE('',#22,#41,#49,.T.);
#49 = CIRCLE('',#50,3.3);
#50 = AXIS2_PLACEMENT_3D('',#51,#52,#53);
#51 = CARTESIAN_POINT('',(-25.,0.,0.));
#52 = DIRECTION('',(1.,0.,0.));
#53 = DIRECTION('',(0.,1.,0.));
#54 = CYLINDRICAL_SURFACE('',#55,3.3);
#55 = AXIS2_PLACEMENT_3D('',#56,#57,#58);
#56 = CARTESIAN_POINT('',(-25.,0.,0.));
#57 = DIRECTION('',(-1.,-0.,-2.2E-16));
#58 = DIRECTION('',(4.84E-32,1.,-2.2E-16));
#59 = ADVANCED_FACE('',(#60),#85,.F.);
#60 = FACE_BOUND('',#61,.F.);
#61 = EDGE_LOOP('',(#62,#63,#71,#79));
#62 = ORIENTED_EDGE('',*,*,#40,.T.);
#63 = ORIENTED_EDGE('',*,*,#64,.T.);
#64 = EDGE_CURVE('',#32,#65,#67,.T.);
#65 = VERTEX_POINT('',#66);
#66 = CARTESIAN_POINT('',(-12.5,2.154065922854,-2.5));
#67 = LINE('',#68,#69);
#68 = CARTESIAN_POINT('',(-12.5,-2.154065922854,-2.5));
#69 = VECTOR('',#70,1.);
#70 = DIRECTION('',(0.,1.,0.));
#71 = ORIENTED_EDGE('',*,*,#72,.F.);
#72 = EDGE_CURVE('',#73,#65,#75,.T.);
#73 = VERTEX_POINT('',#74);
#74 = CARTESIAN_POINT('',(-25.,2.154065922854,-2.5));
#75 = LINE('',#76,#77);
#76 = CARTESIAN_POINT('',(-25.,2.154065922854,-2.5));
#77 = VECTOR('',#78,1.);
#78 = DIRECTION('',(1.,-2.2E-16,0.));
#79 = ORIENTED_EDGE('',*,*,#80,.F.);
#80 = EDGE_CURVE('',#41,#73,#81,.T.);
#81 = LINE('',#82,#83);
#82 = CARTESIAN_POINT('',(-25.,-2.154065922854,-2.5));
#83 = VECTOR('',#84,1.);
#84 = DIRECTION('',(0.,1.,0.));
#85 = PLANE('',#86);
#86 = AXIS2_PLACEMENT_3D('',#87,#88,#89);
#87 = CARTESIAN_POINT('',(-25.,-2.154065922854,-2.5));
#88 = DIRECTION('',(0.,2.2E-16,1.));
#89 = DIRECTION('',(0.,1.,-2.2E-16));
#90 = ADVANCED_FACE('',(#91),#118,.T.);
#91 = FACE_BOUND('',#92,.F.);
#92 = EDGE_LOOP('',(#93,#94,#103,#111));
#93 = ORIENTED_EDGE('',*,*,#72,.T.);
#94 = ORIENTED_EDGE('',*,*,#95,.T.);
#95 = EDGE_CURVE('',#65,#96,#98,.T.);
#96 = VERTEX_POINT('',#97);
#97 = CARTESIAN_POINT('',(-12.5,2.154065922854,2.5));
#98 = CIRCLE('',#99,3.3);
#99 = AXIS2_PLACEMENT_3D('',#100,#101,#102);
#100 = CARTESIAN_POINT('',(-12.5,-3.E-15,0.));
#101 = DIRECTION('',(1.,0.,0.));
#102 = DIRECTION('',(0.,1.,0.));
#103 = ORIENTED_EDGE('',*,*,#104,.F.);
#104 = EDGE_CURVE('',#105,#96,#107,.T.);
#105 = VERTEX_POINT('',#106);
#106 = CARTESIAN_POINT('',(-25.,2.154065922854,2.5));
#107 = LINE('',#108,#109);
#108 = CARTESIAN_POINT('',(-25.,2.154065922854,2.5));
#109 = VECTOR('',#110,1.);
#110 = DIRECTION('',(1.,-2.2E-16,0.));
#111 = ORIENTED_EDGE('',*,*,#112,.F.);
#112 = EDGE_CURVE('',#73,#105,#113,.T.);
#113 = CIRCLE('',#114,3.3);
#114 = AXIS2_PLACEMENT_3D('',#115,#116,#117);
#115 = CARTESIAN_POINT('',(-25.,0.,0.));
#116 = DIRECTION('',(1.,0.,0.));
#117 = DIRECTION('',(0.,1.,0.));
#118 = CYLINDRICAL_SURFACE('',#119,3.3);
#119 = AXIS2_PLACEMENT_3D('',#120,#121,#122);
#120 = CARTESIAN_POINT('',(-25.,0.,0.));
#121 = DIRECTION('',(-1.,-0.,-2.2E-16));
#122 = DIRECTION('',(4.84E-32,1.,-2.2E-16));
#123 = ADVANCED_FACE('',(#124),#140,.T.);
#124 = FACE_BOUND('',#125,.T.);
#125 = EDGE_LOOP('',(#126,#127,#133,#134));
#126 = ORIENTED_EDGE('',*,*,#21,.T.);
#127 = ORIENTED_EDGE('',*,*,#128,.T.);
#128 = EDGE_CURVE('',#24,#96,#129,.T.);
#129 = LINE('',#130,#131);
#130 = CARTESIAN_POINT('',(-12.5,-2.154065922854,2.5));
#131 = VECTOR('',#132,1.);
#132 = DIRECTION('',(0.,1.,0.));
#133 = ORIENTED_EDGE('',*,*,#104,.F.);
#134 = ORIENTED_EDGE('',*,*,#135,.F.);
#135 = EDGE_CURVE('',#22,#105,#136,.T.);
#136 = LINE('',#137,#138);
#137 = CARTESIAN_POINT('',(-25.,-2.154065922854,2.5));
#138 = VECTOR('',#139,1.);
#139 = DIRECTION('',(0.,1.,0.));
#140 = PLANE('',#141);
#141 = AXIS2_PLACEMENT_3D('',#142,#143,#144);
#142 = CARTESIAN_POINT('',(-25.,-2.154065922854,2.5));
#143 = DIRECTION('',(0.,2.2E-16,1.));
#144 = DIRECTION('',(0.,1.,-2.2E-16));
#145 = ADVANCED_FACE('',(#146),#173,.F.);
#146 = FACE_BOUND('',#147,.T.);
#147 = EDGE_LOOP('',(#148,#158,#165,#166));
#148 = ORIENTED_EDGE('',*,*,#149,.T.);
#149 = EDGE_CURVE('',#150,#152,#154,.T.);
#150 = VERTEX_POINT('',#151);
#151 = CARTESIAN_POINT('',(-25.,1.,0.));
#152 = VERTEX_POINT('',#153);
#153 = CARTESIAN_POINT('',(-12.5,1.,0.));
#154 = LINE('',#155,#156);
#155 = CARTESIAN_POINT('',(-25.,1.,-2.2E-16));
#156 = VECTOR('',#157,1.);
#157 = DIRECTION('',(1.,-2.2E-16,0.));
#158 = ORIENTED_EDGE('',*,*,#159,.T.);
#159 = EDGE_CURVE('',#152,#152,#160,.T.);
#160 = CIRCLE('',#161,1.);
#161 = AXIS2_PLACEMENT_3D('',#162,#163,#164);
#162 = CARTESIAN_POINT('',(-12.5,-3.E-15,0.));
#163 = DIRECTION('',(1.,0.,0.));
#164 = DIRECTION('',(0.,1.,0.));
#165 = ORIENTED_EDGE('',*,*,#149,.F.);
#166 = ORIENTED_EDGE('',*,*,#167,.F.);
#167 = EDGE_CURVE('',#150,#150,#168,.T.);
#168 = CIRCLE('',#169,1.);
#169 = AXIS2_PLACEMENT_3D('',#170,#171,#172);
#170 = CARTESIAN_POINT('',(-25.,0.,0.));
#171 = DIRECTION('',(1.,0.,0.));
#172 = DIRECTION('',(0.,1.,0.));
#173 = CYLINDRICAL_SURFACE('',#174,1.);
#174 = AXIS2_PLACEMENT_3D('',#175,#176,#177);
#175 = CARTESIAN_POINT('',(-25.,0.,0.));
#176 = DIRECTION('',(-1.,-0.,-2.2E-16));
#177 = DIRECTION('',(4.84E-32,1.,-2.2E-16));
#178 = ADVANCED_FACE('',(#179,#185),#188,.F.);
#179 = FACE_BOUND('',#180,.F.);
#180 = EDGE_LOOP('',(#181,#182,#183,#184));
#181 = ORIENTED_EDGE('',*,*,#48,.T.);
#182 = ORIENTED_EDGE('',*,*,#80,.T.);
#183 = ORIENTED_EDGE('',*,*,#112,.T.);
#184 = ORIENTED_EDGE('',*,*,#135,.F.);
#185 = FACE_BOUND('',#186,.T.);
#186 = EDGE_LOOP('',(#187));
#187 = ORIENTED_EDGE('',*,*,#167,.T.);
#188 = PLANE('',#189);
#189 = AXIS2_PLACEMENT_3D('',#190,#191,#192);
#190 = CARTESIAN_POINT('',(-25.,-9.7E-16,-1.33E-15));
#191 = DIRECTION('',(1.,0.,0.));
#192 = DIRECTION('',(0.,0.,1.));
#193 = ADVANCED_FACE('',(#194,#200),#203,.T.);
#194 = FACE_BOUND('',#195,.T.);
#195 = EDGE_LOOP('',(#196,#197,#198,#199));
#196 = ORIENTED_EDGE('',*,*,#31,.T.);
#197 = ORIENTED_EDGE('',*,*,#64,.T.);
#198 = ORIENTED_EDGE('',*,*,#95,.T.);
#199 = ORIENTED_EDGE('',*,*,#128,.F.);
#200 = FACE_BOUND('',#201,.F.);
#201 = EDGE_LOOP('',(#202));
#202 = ORIENTED_EDGE('',*,*,#159,.T.);
#203 = PLANE('',#204);
#204 = AXIS2_PLACEMENT_3D('',#205,#206,#207);
#205 = CARTESIAN_POINT('',(-12.5,-3.97E-15,-1.7763568394E-15));
#206 = DIRECTION('',(1.,0.,0.));
#207 = DIRECTION('',(0.,0.,1.));
#208 = ( GEOMETRIC_REPRESENTATION_CONTEXT(3) 
GLOBAL_UNCERTAINTY_ASSIGNED_CONTEXT((#212)) GLOBAL_UNIT_ASSIGNED_CONTEXT
((#209,#210,#211)) REPRESENTATION_CONTEXT('Context #1',
  '3D Context with UNIT and UNCERTAINTY') );
#209 = ( LENGTH_UNIT() NAMED_UNIT(*) SI_UNIT(.MILLI.,.METRE.) );
#210 = ( NAMED_UNIT(*) PLANE_ANGLE_UNIT() SI_UNIT($,.RADIAN.) );
#211 = ( NAMED_UNIT(*) SI_UNIT($,.STERADIAN.) SOLID_ANGLE_UNIT() );
#212 = UNCERTAINTY_MEASURE_WITH_UNIT(LENGTH_MEASURE(1.E-07),#209,
  'distance_accuracy_value','confusion accuracy');
#213 = PRODUCT_RELATED_PRODUCT_CATEGORY('part',$,(#7));
#214 = MECHANICAL_DESIGN_GEOMETRIC_PRESENTATION_REPRESENTATION('',(#215)
  ,#208);
#215 = STYLED_ITEM('color',(#216),#15);
#216 = PRESENTATION_STYLE_ASSIGNMENT((#217,#223));
#217 = SURFACE_STYLE_USAGE(.BOTH.,#218);
#218 = SURFACE_SIDE_STYLE('',(#219));
#219 = SURFACE_STYLE_FILL_AREA(#220);
#220 = FILL_AREA_STYLE('',(#221));
#221 = FILL_AREA_STYLE_COLOUR('',#222);
#222 = COLOUR_RGB('',0.800000010877,0.800000010877,0.800000010877);
#223 = CURVE_STYLE('',#224,POSITIVE_LENGTH_MEASURE(0.1),#225);
#224 = DRAUGHTING_PRE_DEFINED_CURVE_FONT('continuous');
#225 = COLOUR_RGB('',9.803921802644E-02,9.803921802644E-02,
  9.803921802644E-02);
ENDSEC;
END-ISO-10303-21;
